Oops, an error
Loading. Please wait.

Choke Sermon tab

version 2
version 2

Whole song

Interactive

13,418 views 6 this week
4 commentsread comments
1 2 3 4 5
x 12
add to favorites
×
Save as Personal and add changes to this tab that will be seen only by you. Learn more ›
×
You can save this tab as Personal to edit and correct it or add notes. All changes will be seen only by you. Learn more »
launch autoscroll
font size
0
reset
how to read this tab
guitar tuner
backing track
0:00
0:00
edit
Autoscroll
slow
fast
+/-
esc
set tempo
stop
                                  CHOKE SERMON
                           As recorded by Lamb Of God
                           (From the 2009 Album WRATH)

Words by Randy Blythe

Music by Lamb Of God
Arranged by Lamb Of God
Transcribed by Simon Montague-Bassett

Gtr I (D A D G B E) - 'Willie Adler'
Gtr II (D A D G B E) - 'Mark Morton'
Gtr III (D A D G B E) - 'Mark Morton Solo'

  Q=170
 4/4
  Gtrs I, II
  H    Q   S   S   S   S
|----------5-----------------|
|--------------5-------------|
|------------------5---------|
|----------------------5-----|
|----------------------------|
|----------------------------|
Sweep across with natural harmonics

        Gtr I
  PM--------------|            PM--------------|
  |-3-| |-3-| |-3-|  |--3--|   |-3-| |-3-| |-3-|  |--3--|
  E E E E E E E E E  E  E  E   E E E E E E E E E  E  E  E
|----------------------------|----------------------------|
|----------------------------|----------------------------|
|----------------------------|----------------------------|
|----------------------------|----------------------------|
|----------------------------|----------------------------|
|-0-0-0-0-0-0-0-0-0-12-10-12-|-0-0-0-0-0-0-0-0-0-13-12-13-|


                               Gtrs I, II
  PM--------------|            PM--|     PM--|
  |-3-| |-3-| |-3-|  |--3--|   |-3-| |3| |-3-| |3|
  E E E E E E E E E  E  E  E   E E E Q E E E E Q E
|----------------------------|----------------------|
|----------------------------|----------------------|
|----------------------------|----------------------|
|----------------------------|----------------------|
|----------------------------|-----------------2----|
|-0-0-0-0-0-0-0-0-0-15-13-15-|-6-5-3-6-6-5-3-0---1--|


  $
  PM--------------|            PM--------------|
  |-3-| |-3-| |-3-|  |--3--|   |-3-| |-3-| |-3-|  |--3--|
  E E E E E E E E E  E  E  E   E E E E E E E E E  E  E  E
|----------------------------|----------------------------|
|----------------------------|----------------------------|
|----------------------------|----------------------------|
|----------------------------|----------------------------|
|----------------------------|----------------------------|
|-0-0-0-0-0-0-0-0-0-12-10-12-|-0-0-0-0-0-0-0-0-0-13-12-13-|


  PM--------------|            PM--|          PM----|
  |-3-| |-3-| |-3-|  |--3--|   |-3-|  |--3--| |-3-|  |-3--|
  E E E E E E E E E  E  E  E   E E E  E  E  E E E E  E  E E
|----------------------------|---------------------------------|
|----------------------------|---------------------------------|
|----------------------------|---------------------------------|
|----------------------------|---------------------------------|
|----------------------------|-------------------------11------|
|-0-0-0-0-0-0-0-0-0-15-13-15-|-0-0-0-13-12-13-0-0-0-12----0----|


  PM--------------|            PM--------------|
  |-3-| |-3-| |-3-|  |--3--|   |-3-| |-3-| |-3-|  |--3--|
  E E E E E E E E E  E  E  E   E E E E E E E E E  E  E  E
|----------------------------|----------------------------|
|----------------------------|----------------------------|
|----------------------------|----------------------------|
|----------------------------|----------------------------|
|----------------------------|----------------------------|
|-0-0-0-0-0-0-0-0-0-12-13-12-|-0-0-0-0-0-0-0-0-0-13-12-13-|


  PM--------------|            PM--|     PM--|
  |-3-| |-3-| |-3-|  |--3--|   |-3-| |3| |-3-| |3|
  E E E E E E E E E  E  E  E   E E E Q E E E E Q E
|----------------------------|----------------------|
|----------------------------|----------------------|
|----------------------------|----------------------|
|----------------------------|----------------------|
|----------------------------|-----------------2----|
|-0-0-0-0-0-0-0-0-0-15-13-15-|-6-5-3-6-6-5-3-0---1--|


  PM--------------|            PM--------------|
  |-3-| |-3-| |-3-|  |--3--|   |-3-| |-3-| |-3-|  |--3--|
  E E E E E E E E E  E  E  E   E E E E E E E E E  E  E  E
|----------------------------|----------------------------|
|----------------------------|----------------------------|
|----------------------------|----------------------------|
|----------------------------|----------------------------|
|----------------------------|----------------------------|
|-0-0-0-0-0-0-0-0-0-12-10-12-|-0-0-0-0-0-0-0-0-0-13-12-13-|


  PM--------------|            PM--|          PM----|
  |-3-| |-3-| |-3-|  |--3--|   |-3-|  |--3--| |-3-|  |-3--|
  E E E E E E E E E  E  E  E   E E E  E  E  E E E E  E  E E
|----------------------------|---------------------------------|
|----------------------------|---------------------------------|
|----------------------------|---------------------------------|
|----------------------------|---------------------------------|
|----------------------------|-------------------------11------|
|-0-0-0-0-0-0-0-0-0-15-13-15-|-0-0-0-13-12-13-0-0-0-12----0----|


  PM--------------|            PM--------------|
  |-3-| |-3-| |-3-|  |--3--|   |-3-| |-3-| |-3-|  |--3--|
  E E E E E E E E E  E  E  E   E E E E E E E E E  E  E  E
|----------------------------|----------------------------|
|----------------------------|----------------------------|
|----------------------------|----------------------------|
|----------------------------|----------------------------|
|----------------------------|----------------------------|
|-0-0-0-0-0-0-0-0-0-12-13-12-|-0-0-0-0-0-0-0-0-0-13-12-13-|


  PM--------------|                         PM|      PM|
  |-3-| |-3-| |-3-|  |--3--|    |--3--|  |--3--|  |--3--|  |--3--|
  E E E E E E E E E  E  E  E    E  E  E  E  E  E  E  E  E  E  E  E
|----------------------------|----------------------------------------|
|----------------------------|----------------------------------------|
|----------------------------|----------------------------------------|
|----------------------------|----------------------------------------|
|----------------------------|----------10-------12-------13-12-------|
|-0-0-0-0-0-0-0-0-0-15-13-15-|-10-12-13----13-12----13-12-------13----|


  |-3-| |-3-| |-3-| |-3-|   |-3-| |-3-| |-3-| |-3-|
  E E E E E E E E E E E E   E E E E E E E E E E E E
|-------------------------|-------------------------|
|-------------------------|-------------------------|
|-------------------------|-------------------------|
|-------------------------|-------------------------|
|-3-3-3-3-3-3-3-3-3-3-3-3-|-3-3-3-3-3-3-3-3-3-3-3-3-|
|-3-3-3-3-3-3-3-3-3-3-3-3-|-3-3-3-3-3-3-3-3-3-3-3-3-|


  |-3-| |-3-| |-3-| |-3-|   |-3-| |-3-|  |---3---|   |---3---|
  E E E E E E E E E E E E   E E E E E E  E   E   E   E   E   E
|-------------------------|----------------------------------------|
|-------------------------|----------------------------------------|
|-------------------------|----------------------------------------|
|-------------------------|----------------------------------------|
|-2-2-2-2-2-2-2-2-2-2-2-2-|-1-1-1-1-1-1----------------------------|
|-2-2-2-2-2-2-2-2-2-2-2-2-|-1-1-1-1-1-1--x---x---x---x---x---x-----|
                                 Move hand up fretboard hitting harmonics

                                                        ~~~~
  |3|  |--3--| |--3--| |--3--|   |3|  |--3--| |--3--|
  Q E  E  E  E E  E  E E  E  E   Q E  E  E  E E  E  E   Q
|------------------------------|----------------------------|
|------------------------------|----------------------------|
|------------------------------|----------------------------|
|------------------------------|----------------------------|
|--------------8---------------|--------------8-------------|
|-0-0-12-10-12---12-10-0-10-12-|-0-0-12-10-12---12-10-[13]--|


                                 PM--|    PM--|
  |3|  |--3--| |--3--| |--3--|   |-3-|    |-3-|
  Q E  E  E  E E  E  E E  E  E   E E E Q  E E E Q
|------------------------------|---------------------|
|------------------------------|---------------------|
|------------------------------|---------------------|
|------------------------------|---------------------|
|--------------8---------------|-0-0-0-6--0-0-0-3----|
|-0-0-12-10-12---12-10-0-10-12-|-0-0-0-6--0-0-0-3----|


                                                        ~~~~
  |3|  |--3--| |--3--| |--3--|   |3|  |--3--| |--3--|
  Q E  E  E  E E  E  E E  E  E   Q E  E  E  E E  E  E   Q
|------------------------------|----------------------------|
|------------------------------|----------------------------|
|------------------------------|----------------------------|
|------------------------------|----------------------------|
|--------------8---------------|--------------8-------------|
|-0-0-12-10-12---12-10-0-10-12-|-0-0-12-10-12---12-10-[13]--|


                                         To Coda
                                 PM--|    PM--|
  |3|  |--3--| |--3--| |--3--|   |-3-|    |-3-|
  Q E  E  E  E E  E  E E  E  E   E E E Q  E E E Q
|------------------------------|---------------------|
|------------------------------|---------------------|
|------------------------------|---------------------|
|------------------------------|---------------------|
|--------------8---------------|-0-0-0-6--0-0-0-3----|
|-0-0-12-10-12---12-10-0-10-12-|-0-0-0-6--0-0-0-3----|


  PM--------------|            PM--------------|
  |-3-| |-3-| |-3-|  |--3--|   |-3-| |-3-| |-3-|  |--3--|
  E E E E E E E E E  E  E  E   E E E E E E E E E  E  E  E
|----------------------------|----------------------------|
|----------------------------|----------------------------|
|----------------------------|----------------------------|
|----------------------------|----------------------------|
|----------------------------|----------------------------|
|-0-0-0-0-0-0-0-0-0-12-10-12-|-0-0-0-0-0-0-0-0-0-13-12-13-|


                                                    D.S. al Coda
  PM--------------|                         PM|      PM|
  |-3-| |-3-| |-3-|  |--3--|    |--3--|  |--3--|  |--3--|  |--3--|
  E E E E E E E E E  E  E  E    E  E  E  E  E  E  E  E  E  E  E  E
|----------------------------|----------------------------------------|
|----------------------------|----------------------------------------|
|----------------------------|----------------------------------------|
|----------------------------|----------------------------------------|
|----------------------------|----------10-------12-------13-12-------|
|-0-0-0-0-0-0-0-0-0-15-13-15-|-10-12-13----13-12----13-12-------13----|


    &
    PM|                            PM|                    ~~~~
    |3|  |--3--| |--3--| |--3--|   |3|  |--3--| |--3--|
    Q E  E  E  E E  E  E E  E  E   Q E  E  E  E E  E  E   Q
||-------------------------------|----------------------------|
||o------------------------------|----------------------------|
||-------------------------------|----------------------------|
||-------------------------------|----------------------------|
||o-0-0----------8---------------|-0-0----------8-------------|
||--0-0-12-10-12---12-10-0-10-12-|-0-0-12-10-12---12-10-[13]--|


  PM|                            PM--|    PM--|
  |3|  |--3--| |--3--| |--3--|   |-3-|    |-3-|
  Q E  E  E  E E  E  E E  E  E   E E E Q  E E E Q
|------------------------------|---------------------||
|------------------------------|--------------------o||
|------------------------------|---------------------||
|------------------------------|---------------------||
|-0-0----------8---------------|-0-0-0-6--0-0-0-3---o||
|-0-0-12-10-12---12-10-0-10-12-|-0-0-0-6--0-0-0-3----||


  Gtr II
     PM|   PM|   PM--|   PM  PM  PM       PM|   PM|   PM----------------|
   E E E E E E E E   E E E E E E E E    E E E E E E E E   E E E E E E E E
|------------------|-----------------|------------------|-----------------|
|------------------|-----------------|------------------|-----------------|
|------------------|-----------------|------------------|-----------------|
|-10-----7-----7---|---5---8---5---8S|=10-----7-----7---|-----------------|
|--8-----5-----5---|---3---6---3---6S|==8-----5-----5---|-----------------|
|----0-0---0-0---0-|-0---0---0---0---|----0-0---0-0---0-|-0-0-0-0-0-0-0-0-|


     PM|   PM|   PM--|   PM  PM  PM
   E E E E E E E E   E E E E E E E E
|------------------|-----------------|
|------------------|-----------------|
|------------------|-----------------|
|-10-----7-----7---|---5---8---5---8S|
|--8-----5-----5---|---3---6---3---6S|
|----0-0---0-0---0-|-0---0---0---0---|


                     Gtrs I, II
     PM|   PM|   PM------------------------|
                     |-3-| |-3-| |-3-| |-3-|
   E E E E E E E E   E E E E E E E E E E E E
|------------------|-------------------------|
|------------------|-------------------------|
|------------------|-------------------------|
|-10-----7-----7---|-------------------------|
|--8-----5-----5---|-------------------------|
|----0-0---0-0---0-|-7-6-5-6-5-4-5-4-3-4-3-2-|


     PM|   PM|   PM--|   PM  PM  PM       PM|   PM|   PM----|     PM|
   E E E E E E E E   E E E E E E E E    E E E E E E E E   E E E E E E E E
|------------------|-----------------|------------------|-----------------|
|------------------|-----------------|------------------|-----------------|
|------------------|-----------------|------------------|-----------------|
|-10-----7-----7---|---5---8---5---8S|=10-----7-----7---|-----------------|
|--8-----5-----5---|---3---6---3---6S|==8-----5-----5---|-0-0-6-5-0-0-5-3-|
|----0-0---0-0---0-|-0---0---0---0---|----0-0---0-0---0-|-0-0-6-5-0-0-5-3-|


     PM|   PM|   PM--|   PM  PM  PM       PM|   PM|   PM----------------|
   E E E E E E E E   E E E E E E E E    E E E E E E E E   E E E E E E E E
|------------------|-----------------|------------------|-----------------|
|------------------|-----------------|------------------|-----------------|
|------------------|-----------------|------------------|-----------------|
|-10-----7-----7---|---5---8---5---8S|=10-----7-----7---|-----------------|
|--8-----5-----5---|---3---6---3---6S|==8-----5-----5---|-0-0-0-0-0-0-0-0-|
|----0-0---0-0---0-|-0---0---0---0---|----0-0---0-0---0-|-0-0-0-0-0-0-0-0-|


     PM|   PM|   PM--|   PM  PM  PM       PM|   PM|   PM----|     PM|
   E E E E E E E E   E E E E E E E E    E E E E E E E E   E E E E E E E E
|------------------|-----------------|------------------|-----------------|
|------------------|-----------------|------------------|-----------------|
|------------------|-----------------|------------------|-----------------|
|-10-----7-----7---|---5---8---5---8S|=10-----7-----7---|-----------------|
|--8-----5-----5---|---3---6---3---6S|==8-----5-----5---|-0-0-6-5-0-0-5-3-|
|----0-0---0-0---0-|-0---0---0---0---|----0-0---0-0---0-|-0-0-6-5-0-0-5-3-|


     PM|   PM|   PM--|   PM  PM  PM
   E E E E E E E E   E E E E E E E E
|------------------|-----------------|
|------------------|-----------------|
|------------------|-----------------|
|-10-----7-----7---|---5---8---5---8S|
|--8-----5-----5---|---3---6---3---6S|
|----0-0---0-0---0-|-0---0---0---0---|


     PM|   PM|   PM------------------------|
                     |-3-| |-3-| |-3-| |-3-|
   E E E E E E E E   E E E E E E E E E E E E
|------------------|-------------------------|
|------------------|-------------------------|
|------------------|-------------------------|
|-10-----7-----7---|-------------------------|
|--8-----5-----5---|-------------------------|
|----0-0---0-0---0-|-7-6-5-6-5-4-5-4-3-4-3-2-|


         PM|   PM|           PM--|            PM  PM  PM
   E     E E E E E   E       E     E    E     E E E E E  E
|------------------------------|-------------------------------|
|------------------------------|-------------------------------|
|------------------------------|-------------------------------|
|-10---------7-------7---------|--------5-------8---5----8s====|
|--8---------5-------5---------|--------3-------6---3----6s====|
|--------0-0---0-0-----------0-|---0----------0---0---0--------|
|
| Gtr III
|                                       ~~~~~~~
|  H.               +S    S  E    +E   +H.               E
|-15b17============(15)rp12-15-|-(15)-(15)b17------------------|
|------------------------------|------------------------22-----|
|------------------------------|-------------------------------|
|------------------------------|-------------------------------|
|------------------------------|-------------------------------|
|------------------------------|-------------------------------|


         PM---|            PM---|            PM----
   E     E     E     E     E     E     E     E
|-------------------------------------------------|
|-------------------------------------------------|
|-------------------------------------------------|
|-10-----------------7-----------------7----------|
|--8-----------------5-----------------5----------|
|--------0-----0-----------0-----0-----------0----|
|
|  S  S  S  S  S  S  S  S  S  S  S  S  S  S  S  S
|-22p17s15h17p15----------------------------------|
|----------------18p15h18-18-17p15s14-17----------|
|----------------------------------------15p14h15-|
|-------------------------------------------------|
|-------------------------------------------------|
|-------------------------------------------------|


 ---------------------------------------------|
   E     E     E     E      E      E     E     E
|---------------------------------------------------|
|---------------------------------------------------|
|---------------------------------------------------|
|---------------------------------------------------|
|--0-----0-----0-----0------0------0-----0-----0----|
|--0-----0-----0-----0------0------0-----0-----0----|
|
|  S  S  S  S  S  S  S  S   S   S  S  S  S  S  S  S
|---------------------------------------------------|
|-13p11p10----10----------[13]p11p10----10----------|
|----------13----13p12p10------------13----13p12p10-|
|---------------------------------------------------|
|---------------------------------------------------|
|---------------------------------------------------|


        PM|   PM|       PM-----|        PM    PM  PM
   E    E E E E E  E    E       E    E  E  E  E E E E
|----------------------------|----------------------------|
|----------------------------|----------------------------|
|----------------------------|----------------------------|
|-10--------7------7---------|-------5-----8----5---8s====|
|--8--------5------5---------|-------3-----6----3---6s====|
|-------0-0---0-0-------0----|--0-------0-----0---0-------|
|
|  ~~~~~                        ~~~~~~        ~~
|                  |---3---|
|  H.              E  E    E    Q       E  E  H
|-----------------10---------|----------------------------|
|--------------------13p==10-|----------------------------|
|-13b14----------------------|-13b14p==12-10-10-----------|
|----------------------------|----------------------------|
|----------------------------|----------------------------|
|----------------------------|----------------------------|


         PM---|            PM---|            PM----
   E     E     E     E     E     E     E     E
|-------------------------------------------------|
|-------------------------------------------------|
|-------------------------------------------------|
|-10-----------------7-----------------7----------|
|--8-----------------5-----------------5----------|
|--------0-----0-----------0-----0-----------0----|
|
|        PM------|
|  S  S  S  S  S  S  S  S  S  S  S  S  S  S  S  S
|-------------------------------------------------|
|-------------------15-13-------------13----------|
|-13-12-------------------14-13-12-------14-12----|
|-------13-12-15-12----------------15----------15-|
|-------------------------------------------------|
|-------------------------------------------------|


 -----------------------------------------------|
   |----3----|     |-----3-----| |-3-| |---3----|
   E    E    E     E    E      E E E E E E      E
|-------------------------------------------------|
|-------------------------------------------------|
|-------------------------------------------------|
|-------------------------------------------------|
|--0----0----0-----0----0------0-0-0-0-0-0------0-|
|--0----0----0-----0----0------0-0-0-0-0-0------0-|
|
|                           ~~~~~~~~~~~~~~~~~~~~
|  S  S    S    S  S  S     H               +E
|-------------------------------------------------|
|-15-13-------------------------------------------|
|---------14---13-12------------------------------|
|--------------------15---[13]-------------(13)---|
|-------------------------------------------------|
|-------------------------------------------------|


       PM|      PM|        PM----
    E  E E   E  E E  E     E
|-------------------------------|
|-------------------------------|
|-------------------------------|
|--10--------7-------7----------|
|---8--------5-------5----------|
|------0-0------0-0--------0----|
|
|   ~~~~ PM  ~~~~    PM------|
|   Q    E   Q.      S  S  S  S
|-------------------------------|
|-------------------------------|
|-------------------------------|
|-------------------------------|
|-------------------------------|
|-[15]---0-[12]-----10-12-10-12-|


 -|           PM           PM           PM
    E   E     E     E      E      E     E     E
|--------------------------------------------------|
|--------------------------------------------------|
|--------------------------------------------------|
|-------5-----------8-------------5-----------8s===|
|-------3-----------6-------------3-----------6s===|
|---0---------0------------0------------0----------|
|
|   E   S  S  S  S  S  S   S   S  S  S  S  S  S  S
|--------------------------------------------------|
|--------------------------------------------------|
|--------------------------------------------------|
|------------------12h14-[15]h16p15p12h15p12----12-|
|------12h13h15s16---------------------------16----|
|-[15]---------------------------------------------|


          PM|     PM------|    PM----------------------|
    E     E E E   E       E E  E        E  E E E E E E E
|-----------------------------------|--------------------|
|-----------------------------------|--------------------|
|-----------------------------------|--------------------|
|--10---------7-------------7-------|--------------------|
|---8---------5-------------5-------|---0--0-0-0-0-0-0-0-|
|---------0-0-----0-------0----0----|---0--0-0-0-0-0-0-0-|
|
|                                       ~~~~
|   H            +Q.           S  S     W
|-----------------------------------|--------------------|
|-----------------------------------|--------------------|
|-----------------------------------|--------------------|
|-[14]b15-------(14)b15.5p====12----|-[12]---------------|
|--------------------------------15-|--------------------|
|-----------------------------------|--------------------|


         PM---|            PM---|            PM----
   E     E     E     E     E     E     E     E
|-------------------------------------------------|
|-------------------------------------------------|
|-------------------------------------------------|
|-10-----------------7-----------------7----------|
|--8-----------------5-----------------5----------|
|--------0-----0-----------0-----0-----------0----|
|
|  S  S  S  S  S  S  S  S  S  S  S  S  S  S  S  S
|-------------------------------------------------|
|-15h18p15----15h18p15----15h20p15----15h20p15----|
|----------17----------17----------19----------19-|
|-------------------------------------------------|
|-------------------------------------------------|
|-------------------------------------------------|


 -|            PM          PM          PM
   E     E     E     E     E     E     E     E
|-------------------------------------------------|
|-------------------------------------------------|
|-------------------------------------------------|
|--------5-----------8-----------5-----------8s===|
|--------3-----------6-----------3-----------6s===|
|--0-----------0-----------0-----------0----------|
|
|  S  S  S  S  S  S  S  S  S  S  S  S  S  S  S  S
|-------------------------------------------------|
|-15-13-------15-13-------15p13-------15p13-------|
|-------14-12-------14-12-------14-12-------14p12-|
|-------------------------------------------------|
|-------------------------------------------------|
|-------------------------------------------------|


        PM|    PM---|            PM--------------------------------------|
                                         |--3--|  |--3--|  |--3--|  |--3--|
   E    E E E  E     E     E     E       E  E  E  E  E  E  E  E  E  E  E  E
|-------------------------------------|-------------------------------------|
|-------------------------------------|-------------------------------------|
|-------------------------------------|-------------------------------------|
|-10--------7--------------7----------|-------------------------------------|
|--8--------5--------------5----------|-------------------------------------|
|-------0-0----0-----0-----------0----|--7--6--5--6--5--4--5--4--3--4--3--2-|
|
|  ~~~~~                                                   PM------------|
|                                        |--3--|  |--3--|  |--3--|  |--3--|
|  H           S  S  S  S  S  S  S  S    E  E  E  E  E  E  E  E  E  E  E  E
|-------------------------------------|-------------------------------------|
|-------------------------------------|-------------------------------------|
|-12b14-------14p12----12-13h14p13p12-|-------------------------------------|
|-------------------14----------------|-17-16-15----------------------------|
|-------------------------------------|----------17-16-15-------------------|
|-------------------------------------|-------------------17-16-15-15-14-13-|


   |-3-| |-3-| |-3-| |-3-|     |-3--| |-3-| |-3-| |-3-|
   E E E E E E E E E E E E     E  E E E E E E E E E E E
|--------------------------|----------------------------|
|--------------------------|----------------------------|
|--------------------------|----------------------------|
|--------------------------|----------------------------|
|--3-3-3-3-3-3-3-3-3-3-3-3-|---3--3-3-3-3-3-3-3-3-3-3-3-|
|--3-3-3-3-3-3-3-3-3-3-3-3-|---3--3-3-3-3-3-3-3-3-3-3-3-|
|
|  ~~~~~~~~~~~~~~~~~~~~~~~~~~~~~~~~~~~~~~~~~~~~~~~~~~~~~~
|  W                          +W
|--------------------------|----------------------------|
|--------------------------|----------------------------|
|--------------------------|----------------------------|
|--------------------------|----------------------------|
|--------------------------|----------------------------|
|-15-----------------------|-(15)-----------------------|


    |-3--| |-3-| |-3-| |-3-|     |-3--| |-3-| |-3-| |-3-|
    E  E E E E E E E E E E E     E  E E E E E E E E E E E
|----------------------------|-------------------------------|
|----------------------------|-------------------------------|
|----------------------------|-------------------------------|
|----------------------------|-------------------------------|
|---2--2-2-2-2-2-2-2-2-2-2-2-|---1--1-1-1-1-1-1-1-1-1-1-1----|
|---2--2-2-2-2-2-2-2-2-2-2-2-|---1--1-1-1-1-1-1-1-1-1-1-1----|
|
|~~~~~~~~~~~~~~~~~~~~~~~~~~~~~~~~~~~
|   W                           +W
|----------------------------|-------------------------------|
|----------------------------|-------------------------------|
|----------------------------|-------------------------------|
|----------------------------|-------------------------------|
|----------------------------|-------------------------------|
|-[14]-----------------------|-(14)--------------------------|


  PM--------------------------------------------|
  |-3-| |-3-|   |-3-| |-3-|   |-3-| |-3-|   |-3-|  |---3---|   |---3---|
  Q Q Q Q Q Q   Q Q Q Q Q Q   Q Q Q Q Q Q   Q Q Q  E   E   E   E   E   E
|-------------|-------------|-------------|-------------------------------|
|-------------|-------------|-------------|-------------------------------|
|-------------|-------------|-------------|-------------------------------|
|-------------|-------------|-------------|-------------------------------|
|-3-3-3-3-3-3-|-3-3-3-3-3-3-|-2-2-2-2-2-2-|-1-1-1-------------------------|
|-3-3-3-3-3-3-|-3-3-3-3-3-3-|-2-2-2-2-2-2-|-1-1-1--x---x---x---x---x---x--|
                                            Move hand up fretboard hitting harmonics

                                                          ~~~~
    |3|  |--3--| |--3--| |--3--|   |3|  |--3--| |--3--|
    Q E  E  E  E E  E  E E  E  E   Q E  E  E  E E  E  E   Q
||-------------------------------|----------------------------|
||o------------------------------|----------------------------|
||-------------------------------|----------------------------|
||-------------------------------|----------------------------|
||o--------------8---------------|--------------8-------------|
||--0-0-12-10-12---12-10-0-10-12-|-0-0-12-10-12---12-10-[13]--|


                                 PM--|    PM--|
  |3|  |--3--| |--3--| |--3--|   |-3-|    |-3-|
  Q E  E  E  E E  E  E E  E  E   E E E Q  E E E Q
|------------------------------|---------------------||
|------------------------------|--------------------o||
|------------------------------|---------------------||
|------------------------------|---------------------||
|--------------8---------------|-0-0-0-6--0-0-0-3---o||
|-0-0-12-10-12---12-10-0-10-12-|-0-0-0-6--0-0-0-3----||


  PM|                            PM|                    ~~~~
  |3|  |--3--| |--3--| |--3--|   |3|  |--3--| |--3--|
  Q E  E  E  E E  E  E E  E  E   Q E  E  E  E E  E  E   Q
|------------------------------|----------------------------|
|------------------------------|----------------------------|
|------------------------------|----------------------------|
|------------------------------|----------------------------|
|-0-0----------8---------------|-0-0----------8-------------|
|-0-0-12-10-12---12-10-0-10-12-|-0-0-12-10-12---12-10-[13]--|


  PM|                            PM--|    PM--|
  |3|  |--3--| |--3--| |--3--|   |-3-|    |-3-|
  Q E  E  E  E E  E  E E  E  E   E E E Q  E E E Q
|------------------------------|---------------------|
|------------------------------|---------------------|
|------------------------------|---------------------|
|------------------------------|---------------------|
|-0-0----------8---------------|-0-0-0-6--0-0-0-3----|
|-0-0-12-10-12---12-10-0-10-12-|-0-0-0-6--0-0-0-3----|


  PM|                            PM|                    ~~~~
  |3|  |--3--| |--3--| |--3--|   |3|  |--3--| |--3--|
  Q E  E  E  E E  E  E E  E  E   Q E  E  E  E E  E  E   Q
|------------------------------|----------------------------|
|------------------------------|----------------------------|
|------------------------------|----------------------------|
|------------------------------|----------------------------|
|-0-0----------8---------------|-0-0----------8-------------|
|-0-0-12-10-12---12-10-0-10-12-|-0-0-12-10-12---12-10-[13]--|


  PM|                            PM|                PM
  |3|  |--3--| |--3--| |--3--|   |3|  |--3--| |--3--| |--3--|
  Q E  E  E  E E  E  E E  E  E   Q E  E  E  E E  E  E E  E  E
|------------------------------|-------------------------------|
|------------------------------|-------------------------------|
|------------------------------|-------------------------------|
|------------------------------|-------------------------------|
|-0-0----------8---------------|-0-0----------8----------------|
|-0-0-12-10-12---12-10-0-10-12-|-0-0-12-10-12---12-10-0-10-12--|


  PM|                PM
  |3|  |--3--| |--3--| |--3--|
  Q E  E  E  E E  E  E E  E  E
|------------------------------|
|------------------------------|
|------------------------------|
|------------------------------|
|-0-0----------8---------------|
|-0-0-12-10-12---12-10-0-10-12-|


               PM|      PM|
   |--3--|  |--3--|  |--3--|  |--3--|
   E  E  E  E  E  E  E  E  E  E  E  E    H     H
|-------------------------------------|-------------*|
|-------------------------------------|-------------*|
|-------------------------------------|-------------*|
|-------------------------------------|-------------*|
|----------10-------12-------13-12----|-12\---------*|
|-10-12-13----13-12----13-12-------13-|-12\---------*|


Duration Legend
---------------
W - whole; H - half; Q - quarter; E - 8th; S - 16th; T - 32nd; X - 64th; a - acciaccatura
+ - note tied to previous; . - note dotted; .. - note double dotted
Uncapitalized letters represent notes that are staccato (1/2 duration)
Irregular groupings are notated above the duration line
Duration letters will always appear directly above the note/fret number it represents the
duration for.  Duration letters with no fret number below them represent rests.  Multi-
bar rests are notated in the form Wxn, where n is the number of bars to rest for.  Low
melody durations appear below the staff

Tablature Legend
----------------
 h   - hammer-on
 p   - pull-off
 b   - bend
 pb  - pre-bend
 r   - bend release (if no number after the r, then release immediately)
 /\  - slide into or out of (from/to "nowhere")
 s   - legato slide
 S   - shift slide
  - natural harmonic
[n]  - artificial harmonic
n(n) - tapped harmonic
 ~   - vibrato
 tr  - trill
 T   - tap
 TP  - trem. picking
 PM  - palm muting
\n/  - tremolo bar dip; n = amount to dip
 \n  - tremolo bar down
 n/  - tremolo bar up
/n\  - tremolo bar inverted dip
 =   - hold bend; also acts as connecting device for hammers/pulls
 <>  - volume swell (louder/softer)
 x   - on rhythm slash represents muted slash
 o   - on rhythm slash represents single note slash

Misc Legend
-----------
 |  - bar
||  - double bar
||o - repeat start
o|| - repeat end
*|  - double bar (ending)
 :  - bar (freetime)
 $  - Segno
 &  - Coda
Tempo markers -  = BPM(8/16=s8/s16), where s8 = swing 8ths, s16 = swing 16ths

            
            
Suggest correction
Creating personal tab
Creating personal tab
You can edit any tab online and save it as your Personal.

You can edit, replace or remove any tab part or add personal notes – all changes will be seen only by you.

Personal tabs can be accessed anytime from any device, even offline.
Learn more »
comments
print report bad tab
4 comments total. Showing first comments.
-2 reply
6Hymn 6f Death6 216 May 11, 2009 06:13 PM

not accurate =)

0 reply
Lucid_Interval 905 May 12, 2009 06:35 PM

Oh? And what part would that be?

0 reply
Camdon 10 Jun 22, 2009 05:13 AM

No offense but this looks like you basically did an export on the powertab...

guest
You may want to rate the tab now too:
select rating
Wanna post a correction for this tab? Suggest correction