Oops, an error
Loading. Please wait.

Contractor bass

version 1
version 1

Whole song

Interactive

5,054 views 1 this week
2 commentsread comments
1 2 3 4 5
1 last vote to show rating
add to favorites
×
Save as Personal and add changes to this tab that will be seen only by you. Learn more ›
×
You can save this tab as Personal to edit and correct it or add notes. All changes will be seen only by you. Learn more »
launch autoscroll
font size
0
reset
guitar tuner
backing track
0:00
0:00
edit
Autoscroll
slow
fast
+/-
esc
set tempo
stop
i used the guitar tab, made by "a guitar's life"
give credit where credit is due, yo
this also really fast
you can use a pick, but that would make you a pussy
haha
also, im not sure if the chorus is right, so if it's wrong, just make another
one... i dont care about credit

Tuning: DADG

WOOO!!
Intro/Verse:
[-------------------]
[-------------------]x3
[-------------------]
[-0h222222222222222-]

[-------------]
[-------------]
[-------------]
[-7-6-3-6-5-1-]

after a bit of that you play...
[------------------------][---------------------][---------------------]
[------------------------][---------------------][---------------------]
[------------------------][---------------------][---------------------]
[-00000000-10-12-0-10-12-][-00000000-10-12-0-13-][-00000000-10-12-0-15-]

[-------------]
[-------------]
[-------------]
[-7-6-3-6-5-1-]

Chorus:
[---------------------------------]
[---------------------------------] x3
[--------------------------3-1----]
[-0-0-0-0-0-0-0-5~--8-8-5-5-------]

[------------------]
[------------------]
[---------------1~-]
[-0-0-0-0-0-0-0----]

Verse

Chorus

Bridge:
[-------]
[-------]
[-------]
[-0~~~~-]

[---------------------------------------------------]
[---------------------------------------------------]
[---------------------------------------------------]
[-0h3-1--0-7-6~--5~--0-3-5-3-0-1-3-0-5-0000-1-3-0-5-]

After playing a bit of that....
They all DIIIEEEEEEEEEEEEEE!!!!!!!!!!!!!!!!!!!!!!!!!!!!!!....
[------------------------][---------------------][---------------------]
[------------------------][---------------------][---------------------]
[------------------------][---------------------][---------------------]
[-00000000-10-12-0-10-12-][-00000000-10-12-0-13-][-00000000-10-12-0-15-]

[-------------]
[-------------]
[-------------]
[-7-6-3-6-5-1-]

then Chorus
and END

            
            
Suggest correction
Creating personal tab
Creating personal tab
You can edit any tab online and save it as your Personal.

You can edit, replace or remove any tab part or add personal notes – all changes will be seen only by you.

Personal tabs can be accessed anytime from any device, even offline.
Learn more »
Give kudos to tab author, rate the tab!
1 2 3 4 5
comments
print report bad tab
2 comments total.
0 reply
bassbender15 31 Jul 15, 2009 02:15 PM

this tab is shit you left out so much stuff

0 reply
srx_ampeg8338 10 Feb 23, 2010 06:24 AM

Dude you're a piece of shit. What the **** is it any of your business if bass players use a pick. Get ****ed jackass.

guest
Wanna post a correction for this tab? Suggest correction