Oops, an error
Loading. Please wait.
We have an official Dead Seeds tab made by UG professional guitarists. Check out the tab »
×
47,811 views 6 this week
8 commentsread comments
1 2 3 4 5
x 12
add to favorites
×
Save as Personal and add changes to this tab that will be seen only by you. Learn more ›
×
You can save this tab as Personal to edit and correct it or add notes. All changes will be seen only by you. Learn more »
launch autoscroll
font size
0
reset
how to read this tab
guitar tuner
backing track
0:00
0:00
edit
Autoscroll
slow
fast
+/-
esc
set tempo
stop
Author
Song: Dead Seeds
Band: Lamb of God
Album: Wrath

Tabbed by Amstrang
email: mjarmstrong462@gmail.com

Tuning: Drop D

^: half step bend
/: slide

Main/Chorus
|------------------------------------------------------------|
|------------------------------------------------------------|
|------------------------------------------------------------|
|------------------------------------------------------------|x4
|------------------------------------------------------------|
|-12^--12^--12^--0----0-0-0---12^--12^---0-0-1-0-4-0-5-4-1-3-|

Verse
|---------------------------------------------------------------------|
|---------------------------------------------------------------------|
|---------------------------------------------------------------------|
|---------------------------------------------------------------------|
|------------------5-3-5-----------6-5-6-----------6-5-3-5-/9-10-9-6-5|
|-0-0-0-0-0-0-0-0--------0-0-0-0-0-------0-0-0-0-0--------------------|

|----------------------------------------------------------------------------|
|----------------------------------------------------------------------------|
|----------------------------------------------------------------------------|
|----------------------------------------------------------------------------|
|------------------5-3-5-----------6-5-6---------1-1-1-1-1-1-1-1-1-1-1-1-1-1-|
|-0-0-0-0-0-0-0-0--------0-0-0-0-0-------0-0-0-0-1-1-1-1-1-1-1-1-1-1-1-1-1-1-|

|----------------------------------------------------|
|----------------------------------------------------|
|----------------------------------------------------|
|----------------------------------------------------|
|-5-3-5-----------6-5-6-----------6-5-3-5-/9-10-9-6-5|
|-------0-0-0-0-0-------0-0-0-0-0--------------------|

|------------------------------------------------------------------|
|------------------------------------------------------------------|
|------------------------------------------------------------------|
|------------------------------------------------------------------|
|------------------5-3-5-----------6-5-6---------1-1-1-1-1-1-1-1-1-|
|-0-0-0-0-0-0-0-0--------0-0-0-0-0-------0-0-0-0-1-1-1-1-1-1-1-1-1-|

|-------------------------------------------------------------------|
|-------------------------------------------------------------------|
|-------------------------------------------------------------------|
|-7-5-7-----------7-5-7------------8-7-8----------------------------|
|-5-3-5-----------5-3-5------------6-5-6-----------6-5-3-5-/9-10-9-6|
|-------0-0-0-0-0--------0-0-0-0-0-------0-0-0-0-0------------------|

|------------------------------------------------------------------|
|------------------------------------------------------------------|
|------------------------------------------------------------------|
|-7-5-7-----------7-5-7------------8-7-8---------------------------|
|-5-3-5-----------5-3-5------------6-5-6---------1-1-1-1-1-1-1-1-1-|
|-------0-0-0-0-0--------0-0-0-0-0-------0-0-0-0-1-1-1-1-1-1-1-1-1-|

|-------------------------------------------------------------------|
|-------------------------------------------------------------------|
|-------------------------------------------------------------------|
|-7-5-7-----------7-5-7------------8-7-8----------------------------|
|-5-3-5-----------5-3-5------------6-5-6-----------6-5-3-5-/9-10-9-6|
|-------0-0-0-0-0--------0-0-0-0-0-------0-0-0-0-0------------------|

|------------------------------------------------------------------|
|------------------------------------------------------------------|
|------------------------------------------------------------------|
|-7-5-7-----------7-5-7------------8-7-8---------------------------|
|-5-3-5-----------5-3-5------------6-5-6---------1-1-1-1-1-1-1-1-1-|
|-------0-0-0-0-0--------0-0-0-0-0-------0-0-0-0-1-1-1-1-1-1-1-1-1-|

Pre-Chorus
|-------------------------------------------------------------------|
|-------------------------------------------------------------------|
|-------------------------------------------------------------------|
|-------------------------------------------------------------------|
|-------------------------------------------------------------------|
|-1-2-2-3-2-2-1-2-2-3-2-2-5-3-2-3-1-2-2-3-2-2-1-2-2-3-2-2-2-1-1-1-1-|

Chorus
|------------------------------------------------------------|
|------------------------------------------------------------|
|------------------------------------------------------------|
|------------------------------------------------------------|x4
|------------------------------------------------------------|
|-12^--12^--12^--0----0-0-0---12^--12^---0-0-1-0-4-0-5-4-1-3-|

Verse
|----------------------------------------------------------------------|
|----------------------------------------------------------------------|
|----------------------------------------------------------------------|
|----------------------------------------------------------------------|
|-----------------5-3-5------------6-5-6-----------6-5-3-5-/9-10-9-6-5-|
|-0-0-0-0-0-0-0-0--------0-0-0-0-0-------0-0-0-0-0---------------------|

|----------------------------------------------------------------------------|
|----------------------------------------------------------------------------|
|----------------------------------------------------------------------------|
|----------------------------------------------------------------------------|
|------------------5-3-5-----------6-5-6---------1-1-1-1-1-1-1-1-1-1-1-1-1-1-|
|-0-0-0-0-0-0-0-0--------0-0-0-0-0-------0-0-0-0-1-1-1-1-1-1-1-1-1-1-1-1-1-1-|

|-----------------------------------------------------|
|-----------------------------------------------------|
|-----------------------------------------------------|
|-----------------------------------------------------|
|-5-3-5-----------6-5-6-----------6-5-3-5-/9-10-9-6-5-|
|-------0-0-0-0-0-------0-0-0-0-0---------------------|

|------------------------------------------------------------------|
|------------------------------------------------------------------|
|------------------------------------------------------------------|
|------------------------------------------------------------------|
|------------------5-3-5-----------6-5-6---------1-1-1-1-1-1-1-1-1-|
|-0-0-0-0-0-0-0-0--------0-0-0-0-0-------0-0-0-0-1-1-1-1-1-1-1-1-1-|

|--------------------------------------------------------------------|
|--------------------------------------------------------------------|
|--------------------------------------------------------------------|
|-7-5-7-----------7-5-7------------8-7-8-----------------------------|
|-5-3-5-----------5-3-5------------6-5-6-----------6-5-3-5-/9-10-9-6-|
|-------0-0-0-0-0--------0-0-0-0-0-------0-0-0-0-0-------------------|

|------------------------------------------------------------------|
|------------------------------------------------------------------|
|------------------------------------------------------------------|
|-7-5-7-----------7-5-7------------8-7-8---------------------------|
|-5-3-5-----------5-3-5------------6-5-6---------1-1-1-1-1-1-1-1-1-|
|-------0-0-0-0-0--------0-0-0-0-0-------0-0-0-0-1-1-1-1-1-1-1-1-1-|

|--------------------------------------------------------------------|
|--------------------------------------------------------------------|
|--------------------------------------------------------------------|
|-7-5-7-----------7-5-7------------8-7-8-----------------------------|
|-5-3-5-----------5-3-5------------6-5-6-----------6-5-3-5-/9-10-9-6-|
|-------0-0-0-0-0--------0-0-0-0-0-------0-0-0-0-0-------------------|

|------------------------------------------------------------------|
|------------------------------------------------------------------|
|------------------------------------------------------------------|
|-7-5-7-----------7-5-7------------8-7-8---------------------------|
|-5-3-5-----------5-3-5------------6-5-6---------1-1-1-1-1-1-1-1-1-|
|-------0-0-0-0-0--------0-0-0-0-0-------0-0-0-0-1-1-1-1-1-1-1-1-1-|

Pre-Chorus
|-------------------------------------------------------------------|
|-------------------------------------------------------------------|
|-------------------------------------------------------------------|
|-------------------------------------------------------------------|
|-------------------------------------------------------------------|
|-1-2-2-3-2-2-1-2-2-3-2-2-5-3-2-3-1-2-2-3-2-2-1-2-2-3-2-2-2-1-1-1-1-|

Chorus
|------------------------------------------------------------|
|------------------------------------------------------------|
|------------------------------------------------------------|
|------------------------------------------------------------|x3
|------------------------------------------------------------|
|-12^--12^--12^--0----0-0-0---12^--12^---0-0-1-0-4-0-5-4-1-3-|

|----------------------------------------------------------------------|
|----------------------------------------------------------------------|
|----------------------------------------------------------------------|
|----------------------------------------------------------------------|
|------------------------------------------------------------0~~~~~~~~~|
|-12^--12^--12^--0----0-0-0---12^--12^---0-0-1-0-4-0-5-4-1-3-0~~~~~~~~~|

Breakdown 1
|----------|
|----------|
|----------|
|----------|x16
|-2-3-2-2--|
|-2-3-2-2--|

Breakdown 2
|--------------------------------------------------------------------------|
|--------------------------------------------------------------------------|
|--------------------------------------------------------------------------|
|--------------------------------------------------------------------------|x4
|--------------------------------------------------------------------------|
|-6---2-2-5---2-2-5---2-2-2-2-5---2-2-5---2-2-3-2-2-2-5---2-2-2-2-2-2-2-2--|

Breakdown 3
|------------------------------------------------------|
|------------------------------------------------------|
|------------------------------------------------------|
|------------------------------------------------------|x3
|-7-6--------7-6--------7----------3-5-6-0-0-0-0-1-0-0-|
|-7-6--0-0-0-7-6--0-0-0-7--0-3-5-6-------0-0-0-0-1-0-0-|

|----------------------------------------|
|----------------------------------------|
|----------------------------------------|
|----------------------------------------|
|-7-6--------7-6--------7----------3-5-6-|
|-7-6--0-0-0-7-6--0-0-0-7--0-3-5-6-------|

Chorus
|------------------------------------------------------------|
|------------------------------------------------------------|
|------------------------------------------------------------|
|------------------------------------------------------------|x8
|------------------------------------------------------------|
|-12^--12^--12^--0----0-0-0---12^--12^---0-0-1-0-4-0-5-4-1-3-|

            
            
Suggest correction
Creating personal tab
Creating personal tab
You can edit any tab online and save it as your Personal.

You can edit, replace or remove any tab part or add personal notes – all changes will be seen only by you.

Personal tabs can be accessed anytime from any device, even offline.
Learn more »
comments
print report bad tab
8 comments total. Showing first comments. show 1 bad comment
-1 reply
sever_body 110 Feb 28, 2009 08:01 PM

stupid script

|---------------------|
|---------------------|
|---------------------|
|---------------------|
|---------------------|
|-0-0-1-0-3-0-4-3-1-3-|

|-------------------|
|-------------------|
|-------------------|
|---------4-5-4-----|
|-6-5-3-5-------6-5-|
|-------------------|

|-------------------------|
|-------------------------|
|-------------------------|
|-------------------------|
|-0-1-1-0-1-1-0-1-1-0-1-1-|
|-0-1-1-0-1-1-0-1-1-0-1-1-|

0 reply
pantera7762 10 Mar 02, 2009 12:31 PM

the song is not in drop C# it is in drop D

guest
You may want to rate the tab now too:
select rating
Wanna post a correction for this tab? Suggest correction