Oops, an error
Loading. Please wait.
We have an official Descending tab made by UG professional guitarists. Check out the tab »
×
9,601 views 6 this week
6 commentsread comments
1 2 3 4 5
x 5
add to favorites
×
Save as Personal and add changes to this tab that will be seen only by you. Learn more ›
×
You can save this tab as Personal to edit and correct it or add notes. All changes will be seen only by you. Learn more »
launch autoscroll
font size
0
reset
guitar tuner
backing track
0:00
0:00
edit
Autoscroll
slow
fast
+/-
esc
set tempo
stop
Verse
G|--|---------------------------|
D|--|---------------------------|x4
A|12|h13----------12h13---------|
D|--|---12-0-12-0------12-0-12-0|

G|----------------|
D|----------------|
A|13p12-----------|
D|-----0-12-0-12-0|

G|-------------|
D|-------------|x3
A|12-----------|
D|--0-12-0-12-0|

Chorus
G|------------------------------|
D|------------------------------|
A|------------------------------|
D|888-888-8/77-777-7/55-555-5/33|

G|-----------------------------|
D|-----------------------------|
A|-----------------------------|
D|0-0-0h5-0-0-5p1-0-0h5-0-0h110|

Verse

Breakdown
G|---------------------------------|
D|---------------------------------|x2
A|---------------------------------|
D|7-7h8-7-7h8-10p8-7h8p7-5h7p5-35/8|

G|----------------------------|
D|----------------------------|x2
A|----3h5---------------------|
D|0-00---0-0000-00-000-000-000|

Verse til end

            
            
Suggest correction
Creating personal tab
Creating personal tab
You can edit any tab online and save it as your Personal.

You can edit, replace or remove any tab part or add personal notes – all changes will be seen only by you.

Personal tabs can be accessed anytime from any device, even offline.
Learn more »
comments
print report bad tab
6 comments total. Showing first comments.
0 reply
totalxanarchy 212 Nov 02, 2007 12:55 PM

pretty nice job. intros wrong tho. im pretty shur that bass follows drums on open D. everything else looks good tho.

0 reply
BrendanKnight 52 Dec 12, 2007 02:20 PM

actually i thought that too but it sounded to me like the bass was doin what ive got, but both ways sound good

0 reply
dannyloughran 430 Feb 06, 2008 02:47 PM

Bass is following the guitar in the intro. =]

guest
You may want to rate the tab now too:
select rating
Wanna post a correction for this tab? Suggest correction