Oops, an error
Loading. Please wait.
We have an official Desolation tab made by UG professional guitarists. Check out the tab »
×
26,461 views 36 this week
no commentswrite comment
1 2 3 4 5
x 11
add to favorites
×
Save as Personal and add changes to this tab that will be seen only by you. Learn more ›
×
You can save this tab as Personal to edit and correct it or add notes. All changes will be seen only by you. Learn more »
launch autoscroll
font size
0
reset
how to read this tab
guitar tuner
backing track
0:00
0:00
edit
Autoscroll
slow
fast
+/-
esc
set tempo
stop
[Intro]
Q=136
C#5
4/4

(Gtr 1)
PM------|                            PM--|
    S S   S S  S  S  S  S  S  S  S  S  S S S S

D#|---------------------------------------------|
A#|o--------------------------------------------|
F#|---------------------------------------------|
C#|---------------------------------------------|
G#|o--------------------------------------------|
C#|--0-0---0-0-12h13-13-13-10h12-12-12-\3-0-0-0-|

(Gtr 2)
   PM------|
   S T T S S  H.

D#|---------------------------------------------|
A#|o--------------------------------------------|
F#|---------------------------------------------|
C#|---------------------------------------------|
G#|o-0-0-0-0-0----------------------------------|
C#|--0-0-0-0-0----------------------------------|


      C#5
    PM------------------------------------|
  S S S S  S   S  S  S  S S S S  S   S  S  S

D#|---------------------------------------------|
A#|---------------------------------------------|
F#|---------------------------------------------|
C#|---------------------------------------------|
G#|---------------------------------------------|
C#|-3-0-0-0-15--15-15-15--0-0-0-0-15--15-15-15--|

  |     PM       PM-----------|        PM
  | S S E   +S   E     E.     E   +S   E     S
D#|---------------------------------------------|
A#|---------------------------------------------|
F#|---------------------------------------------|
C#|---------------------------------------------|
G#|-----0---(0)--0------------0---(0)--0--------|
C#|---x-0---(0)--0-----x------0---(0)--0--------|


  C#5
  PM----|                             PM--|
  S S S S  S  S  S  S  S  S  S  S  S  S S S

D#|-------------------------------------------|
A#|-------------------------------------------|
F#|-------------------------------------------|
C#|-------------------------------------------|
G#|-------------------------------------------|
C#|-0-0-0-0-12h13-13-13-10h12-12-12-\3--0-0-0-|
|
| PM----|
| S S S S  H                       E.     S

D#|-------------------------------------------|
A#|-------------------------------------------|
F#|-------------------------------------------|
C#|-------------------------------------------|
G#|-0-0-0-0-----------------------------------|
C#|-0-0-0-0---------------------------------0h|


                              E
      PM----|         PM--------|
  S S S S S S S S S S S S S S S S

D#|----------------------------------|
A#|---------------------------------o|
F#|----------------------------------|
C#|----------------------------------|
G#|-----------------------------0-0-o|
C#|-3p0-0-0-0-0-3p0h3p0-0-0-0-0-0-0--|
|
|     PM----|         PM--------|
| S S S S S S S S S S S S S S S S

D#|----------------------------------|
A#|---------------------------------o|
F#|----------------------------------|
C#|----------------------------------|
G#|-----------------------------0-0-o|
C#|-3p0-0-0-0-0-3p0h3p0-0-0-0-0-3-3--|


    C#      C# D        B  C#       E  C#
   4/4
    Gtrs I, II
    PM----|                            PM--|
    S S S S  S  S  S  S  S  S  S  S  S S S S

D#|-------------------------------------------|
A#|o------------------------------------------|
F#|-------------------------------------------|
C#|-------------------------------------------|
G#|o------------------------------------------|
C#|--0-0-0-0-12h13-13-13-10h12-12-12-\3-0-0-0-|


  E C#    E           C#      E
    PM---------------------------------|
  S S S S  S  S  S  S S S S S  S  S  S  S

D#|-----------------------------------------|
A#|-----------------------------------------|
F#|-----------------------------------------|
C#|-----------------------------------------|
G#|-----------------------------------------|
C#|-3-0-0-0-15-15-15-15-0-0-0-0-15-15-15-15-|


  PM----|                            PM--|
  S S S S  S  S  S  S  S  S  S  S  S S S S

D#|------------------------------------------|
A#|------------------------------------------|
F#|------------------------------------------|
C#|------------------------------------------|
G#|------------------------------------------|
C#|-0-0-0-0-12h13-13-13-10h12-12-12-\3-0-0-0-|


  1.                                  2.
      PM----|         PM--------|         PM----|         PM----|
  S S S S S S S S S S S S S S S S     S S S S S S S S S S S S S S E

D#|----------------------------------|---------------------------------|
A#|---------------------------------o|---------------------------------|
F#|----------------------------------|---------------------------------|
C#|----------------------------------|---------------------------------|
G#|---------------------------------o|-----------------------------3/--|
C#|-3p0-0-0-0-0-3p0h3p0-0-0-0-0-0-0--|-3p0-0-0-0-0-3p0h3p0-0-0-1-2S3/--|


     Verse
      Gtrs I, II
       S  S S  S  S S  S  S S  S  S S  S  S S  S
D#|---------------------------------------------|
A#|o--------------------------------------------|
F#|---------------------------------------------|
C#|---------------------------------------------|
G#|o--------------------------------------------|
C#|--15p12p0-15p12p0-15p12p0-15p12p0-15p12p0-12h|


     S  S S  S  S S  S  S S  S  S S  S  S S  S
D#|---------------------------------------------|
A#|---------------------------------------------|
F#|---------------------------------------------|
C#|---------------------------------------------|
G#|---------------------------------------------|
C#|-15p12p0-15p12p0-15p12p0-15p12p0-15p12p0-12--|


     S  S S  S  S S  S S S  S S S  S S S  S
D#|-----------------------------------------|
A#|-----------------------------------------|
F#|-----------------------------------------|
C#|-----------------------------------------|
G#|-----------------------------------------|
C#|-13p12p0-13p12p0-12p0-0-12p0-0-12p0-0-12h|


     S  S S  S  S S  S S S  S S S  S S S  S
D#|------------------------------------------|
A#|-----------------------------------------o|
F#|------------------------------------------|
C#|------------------------------------------|
G#|-----------------------------------------o|
C#|-13p12p0-13p12p0-12p0-0-12p0-0-12p0-0-12--|


     Pre-Chorus
      Gtrs I, II
         PM|    PM|    PM|    PM|                PM|   PM|   PM|   PM|
       S S S  S S S  S S S  S S S  S S  S S    S S S S S S S S S S S S S S S S
D#|----------------------------------------|-----------------------------------|
A#|o---------------------------------------|-----------------------------------|
F#|----------------------------------------|-----------------------------------|
C#|----------------------------------------|-----------------------------------|
G#|o---------------------------------------|-----------------------------------|
C#|--10-0-0-12-0-0-13-0-0-12-0-0-10p0h12p0h|=10-0-0-8-0-0-7-0-0-8-0-0-7p0h5p0--|


    (Gtr 1)
            PM|         PM|
    S S S S S S S S S S S S S S S S
D#|---------------------------------|
A#|---------------------------------|
F#|---------------------------------|
C#|---------------------------------|
G#|---------------------------------|
C#|-3h5-5-5-5-5-3h5-5-5-5-5-3h5-5-5-|
|
  | (Gtr 2)
  |         PM|         PM|
  | S S S S S S S S S S S S S S S S
D#|---------------------------------|
A#|---------------------------------|
F#|---------------------------------|
C#|---------------------------------|
G#|---------------------------------|
C#|-0h5-5-5-5-5-0h5-5-5-5-5-0h5-5-5-|


  1.                                  2.
  PM----|           PM|
  S S S S S S S S S S S S S S S S     H.      a  Q

D#|----------------------------------|-----------------|
A#|---------------------------------o|-----------------|
F#|----------------------------------|-----------------|
C#|----------------------------------|-----------------|
G#|---------------3h5-6-5-3---------o|-1-------x-------|
C#|-0-1-0-1-3h5h6-----------6p5p3h5--|-1-------x--5\---|

|
| PM----|           PM|
| S S S S S S S S S S S S S S S S     H.      a  Q

D#|----------------------------------|-----------------|
A#|---------------------------------o|-----------------|
F#|----------------------------------|-----------------|
C#|---------------1h3-5-3-1----------|-----------------|
G#|---------0h1h3-------------------o|-1-------x-------|
C#|-3-1-3-1-----------------3p1p0h1--|-1-------x-12\---|


   Chorus
   4/4
    Gtrs I, II
    PM----|                            PM--|
    S S S S  S  S  S  S  S  S  S  S  S S S S

D#|-------------------------------------------|
A#|o------------------------------------------|
F#|-------------------------------------------|
C#|-------------------------------------------|
G#|o------------------------------------------|
C#|--0-0-0-0-12h13-13-13-10h12-12-12-\3-0-0-0-|


    PM---------------------------------|
  S S S S  S  S  S  S S S S S  S  S  S  S

D#|-----------------------------------------|
A#|-----------------------------------------|
F#|-----------------------------------------|
C#|-----------------------------------------|
G#|-----------------------------------------|
C#|-3-0-0-0-15-15-15-15-0-0-0-0-15-15-15-15-|


  PM----|                            PM--|
  S S S S  S  S  S  S  S  S  S  S  S S S S

D#|------------------------------------------|
A#|------------------------------------------|
F#|------------------------------------------|
C#|------------------------------------------|
G#|------------------------------------------|
C#|-0-0-0-0-12h13-13-13-10h12-12-12-\3-0-0-0-|


  1.                                  2.
      PM----|         PM---------------|
  S S S S S S S S S S S S S S S S      Q  H    S S E

D#|----------------------------------|-----------------|
A#|---------------------------------o|-----------------|
F#|----------------------------------|-----------------|
C#|----------------------------------|-----------------|
G#|---------------------------------o|--0-------x-x-3/-|
C#|-3p0-0-0-0-0-3p0h3p0-0-0-0-0-0-0--|--0-------x-x-3/-|


   Lead (Mark Morton)
    Gtrs I, II
      S  S S  S  S S  S  S S  S  S S  S  S S  S
D#|---------------------------------------------|
A#|---------------------------------------------|
F#|---------------------------------------------|
C#|---------------------------------------------|
G#|---------------------------------------------|
C#|--15p12p0-15p12p0-15p12p0-15p12p0-15p12p0-12h|

(Gtr 3)
  |   ~~~~~~~~~~~~~~~~~~~~~~~~~~~~~~~~~~~~~~~~~~~
  |   W
D#|---------------------------------------------|
A#|-/10-----------------------------------------|
F#|---------------------------------------------|
C#|---------------------------------------------|
G#|---------------------------------------------|
C#|---------------------------------------------|

(Gtr 4)
     ~~~~~~~~~~~~~~~~~~~~~~~~~~~~~~~~~~~~~~~~~~~
     W
D#|---------------------------------------------|
A#|-/15-----------------------------------------|
F#|---------------------------------------------|
C#|---------------------------------------------|
G#|---------------------------------------------|
C#|---------------------------------------------|

      S  S S  S  S S  S  S S  S  S S  S  S  S  S
D#|----------------------------------------------|
A#|----------------------------------------------|
F#|----------------------------------------------|
C#|----------------------------------------------|
G#|----------------------------------------------|
C#|--15p12p0-15p12p0-15p12p0-15p12p0-15p12p=0-12-|

  |~~~~~~                                   PM
  |   H.                              E     E
D#|----------------------------------------------|
A#|--/8------------------------------------------|
F#|-----------------------------------9-----7----|
C#|----------------------------------------------|
G#|----------------------------------------------|
C#|----------------------------------------------|

  |~~~~~~                                   PM
  |   H.                              E     E
D#|----------------------------------12----------|
A#|-/13------------------------------------15----|
F#|----------------------------------------------|
C#|----------------------------------------------|
G#|----------------------------------------------|
C#|----------------------------------------------|

     S  S S  S  S S  S S S  S S S  S S S  S
D#|-----------------------------------------|
A#|-----------------------------------------|
F#|-----------------------------------------|
C#|-----------------------------------------|
G#|-----------------------------------------|
C#|-13p12p0-13p12p0-12p0-0-12p0-0-12p0-0-12h|

  |  ~~~~~~~~~~~~~~~~~~~~~~~~~~~~~~~~~~~~~~~~
  |  W
D#|-----------------------------------------|
A#|-----------------------------------------|
F#|--9--------------------------------------|
C#|-----------------------------------------|
G#|-----------------------------------------|
C#|-----------------------------------------|

  |  ~~~~~~~~~~~~~~~~~~~~~~~~~~~~~~~~~~~~~~~~
  |  W
D#|-12--------------------------------------|
A#|-10--------------------------------------|
F#|-----------------------------------------|
C#|-----------------------------------------|
G#|-----------------------------------------|
C#|-----------------------------------------|

      S   S S  S  S S  S S   S    S S S  S S S  S
D#|-----------------------------------------------|
A#|-----------------------------------------------|
F#|-----------------------------------------------|
C#|-----------------------------------------------|
G#|-----------------------------------------------|
C#|--13p=12p0-13p12p0-12p0---0---12p0-0-12p0-0-12-|

  |~~~~~~
  |  +H                      H
D#|-----------------------------------------------|
A#|-----------------------------------------------|
F#|--(9)--------------------(9)-------------------|
C#|------------------------(<9>)------------------|
G#|-----------------------------------------------|
C#|-----------------------------------------------|

  |~~~~~~
  |  +H                     +H
D#|-(12)-------------------(12)-------------------|
A#|-(10)-------------------(10)-------------------|
F#|-----------------------------------------------|
C#|-----------------------------------------------|
G#|-----------------------------------------------|
C#|-----------------------------------------------|

[Verse]
(Gtrs 1, 20
       S  S S  S  S S  S  S S  S  S S  S  S S  S
D#|---------------------------------------------|
A#|o--------------------------------------------|
F#|---------------------------------------------|
C#|---------------------------------------------|
G#|o--------------------------------------------|
C#|--15p12p0-15p12p0-15p12p0-15p12p0-15p12p0-12h|

     S  S S  S  S S  S  S S  S  S S  S  S S  S
D#|---------------------------------------------|
A#|---------------------------------------------|
F#|---------------------------------------------|
C#|---------------------------------------------|
G#|---------------------------------------------|
C#|-15p12p0-15p12p0-15p12p0-15p12p0-15p12p0-12--|

     S  S S  S  S S  S S S  S S S  S S S  S
D#|-----------------------------------------|
A#|-----------------------------------------|
F#|-----------------------------------------|
C#|-----------------------------------------|
G#|-----------------------------------------|
C#|-13p12p0-13p12p0-12p0-0-12p0-0-12p0-0-12h|

     S  S S  S  S S  S S S  S S S  S S S  S
D#|------------------------------------------|
A#|-----------------------------------------o|
F#|------------------------------------------|
C#|------------------------------------------|
G#|-----------------------------------------o|
C#|-13p12p0-13p12p0-12p0-0-12p0-0-12p0-0-12--|

[Pre-Chorus]
(Gtrs 1, 2)
         PM|    PM|    PM|    PM|                PM|   PM|   PM|   PM|
       S S S  S S S  S S S  S S S  S S  S S    S S S S S S S S S S S S S S S S
D#|----------------------------------------|-----------------------------------|
A#|o---------------------------------------|-----------------------------------|
F#|----------------------------------------|-----------------------------------|
C#|----------------------------------------|-----------------------------------|
G#|o---------------------------------------|-----------------------------------|
C#|--10-0-0-12-0-0-13-0-0-12-0-0-10p0h12p0h|=10-0-0-8-0-0-7-0-0-8-0-0-7p0h5p0--|

(Gtr 1)
            PM|         PM|
    S S S S S S S S S S S S S S S S
D#|---------------------------------|
A#|---------------------------------|
F#|---------------------------------|
C#|---------------------------------|
G#|---------------------------------|
C#|-3h5-5-5-5-5-3h5-5-5-5-5-3h5-5-5-|

(Gtr 2)
           PM|         PM|
  | S S S S S S S S S S S S S S S S
D#|---------------------------------|
A#|---------------------------------|
F#|---------------------------------|
C#|---------------------------------|
G#|---------------------------------|
C#|-0h5-5-5-5-5-0h5-5-5-5-5-0h5-5-5-|


  1.                                  2.
  PM----|           PM|
  S S S S S S S S S S S S S S S S     H.      a  Q

D#|----------------------------------|-----------------|
A#|---------------------------------o|-----------------|
F#|----------------------------------|-----------------|
C#|----------------------------------|-----------------|
G#|---------------3h5-6-5-3---------o|-1-------x-------|
C#|-0-1-0-1-3h5h6-----------6p5p3h5--|-1-------x-15\---|

|
| PM----|           PM|
| S S S S S S S S S S S S S S S S     H.      a  Q

D#|----------------------------------|-----------------|
A#|---------------------------------o|-----------------|
F#|----------------------------------|-----------------|
C#|---------------1h3-5-3-1----------|-----------------|
G#|---------0h1h3-------------------o|-1-------x-------|
C#|-3-1-3-1-----------------3p1p0h1--|-1-------x-12\---|

[Chorus]
4/4
(Gtrs 1, 2)
    PM----|                            PM--|
    S S S S  S  S  S  S  S  S  S  S  S S S S

D#|-------------------------------------------|
A#|o------------------------------------------|
F#|-------------------------------------------|
C#|-------------------------------------------|
G#|o------------------------------------------|
C#|--0-0-0-0-12h13-13-13-10h12-12-12-\3-0-0-0-|

    PM---------------------------------|
  S S S S  S  S  S  S S S S S  S  S  S  S

D#|-----------------------------------------|
A#|-----------------------------------------|
F#|-----------------------------------------|
C#|-----------------------------------------|
G#|-----------------------------------------|
C#|-3-0-0-0-15-15-15-15-0-0-0-0-15-15-15-15-|

  PM----|                            PM--|       PM----|         PM--------|
  S S S S  S  S  S  S  S  S  S  S  S S S S   S S S S S S S S S S S S S S S S

D#|------------------------------------------|----------------------------------|
A#|------------------------------------------|---------------------------------o|
F#|------------------------------------------|----------------------------------|
C#|------------------------------------------|----------------------------------|
G#|------------------------------------------|---------------------------------o|
C#|-0-0-0-0-12h13-13-13-10h12-12-12-\3-0-0-0-|-3p0-0-0-0-0-3p0h3p0-0-0-0-0-0-0--|


[Interlude]
 7/4
  (Gtr 1)                       Gtrs I, II
  PM--|      ~~~PM--|      ~~~PM--|      ~~~PM--|      ~~~PM--|
  S S S E   +S  S S S E   +S  S S S E   +S  S S S E   +S  S S S S

D#|-------------------------------------------------------------------|
A#|-------------------------------------------------------------------|
F#|-------------------------------------------------------------------|
C#|-------------------------------------------------------------------|
G#|-------------------------------------------------------------------|
C#|-0-0-0-3b4-(3)-0-0-0-6b7-(6)-0-0-0-3b4-(3)-0-0-0-6b7-(6)-0-0-0-3b4-|



 1/4
       ~~~PM----|            PM--------------|
  +S  +S  S S   S E   +S     S S S S   S S S S

D#|-------------|------------|---------|----------|
A#|-------------|------------|---------|----------|
F#|-------------|------------|---------|----------|
C#|-------------|------------|---------|----------|
G#|-------------|------------|---------|----------|
C#|-(3)-(3)-0-0-|-0-6b7-(6)\-|-0-0-0-0-|-0-0-0-0--|

 4/2
(Gtrs 1, 2)
  PM--|      ~~~PM--|      ~~~PM--|      ~~~PM--|      ~~~PM------------|
  S S S E   +S  S S S E   +S  S S S E   +S  S S S E   +S  S S S S S S S S

D#|-------------------------------------------------------------------------|
A#|-------------------------------------------------------------------------|
F#|-------------------------------------------------------------------------|
C#|-------------------------------------------------------------------------|
G#|-------------------------------------------------------------------------|
C#|-0-0-0-6b7-(6)-0-0-0-3b4-(3)-0-0-0-6b7-(6)-0-0-0-3b4-(3)-0-0-0-0-0-0-0-0-|


  PM--|      ~~~PM--|      ~~~PM--|          ~~~PM--|          PM------------|
  S S S E   +S  S S S E   +S  S S S S   +S  +S  S S S E   +S   S S S S S S S S

D#|------------------------------------------------------------------------------|
A#|------------------------------------------------------------------------------|
F#|------------------------------------------------------------------------------|
C#|------------------------------------------------------------------------------|
G#|------------------------------------------------------------------------------|
C#|-0-0-0-3b4-(3)-0-0-0-6b7-(6)-0-0-0-3b4-(3)-(3)-0-0-0-6b7-(6)\-0-0-0-0-0-0-0-0-|

 4/2
  PM--|      ~~~PM--|      ~~~PM--|      ~~~PM--|      ~~~PM----|
  S S S E   +S  S S S E   +S  S S S E   +S  S S S E   +S  S S S S   Q

D#|-----------------------------------------------------------------------|
A#|-----------------------------------------------------------------------|
F#|-----------------------------------------------------------------------|
C#|-----------------------------------------------------------------------|
G#|-----------------------------------------------------------------/12\--|
C#|-0-0-0-6b7-(6)-0-0-0-3b4-(3)-0-0-0-6b7-(6)-0-0-0-3b4-(3)-0-0-0-0-/12\--|

(Gtrs 1, 2)
    PM--|    PM--|    PM--|    PM--|    PM------------|
    S S S E. S S S E. S S S E. S S S E. S S S S S S S S

D#|------------------------------------------------------|
A#|o-----------------------------------------------------|
F#|------------------------------------------------------|
C#|------------------------------------------------------|
G#|o-------3--------6--------3--------6------------------|
C#|--0-0-0-3--0-0-0-6--0-0-0-3--0-0-0-6--0-0-0-0-0-0-0-0-|

(Gtr 1)
  PM--|    PM--|     PM--|     PM--|    PM------------|
  S S S E. S S S  E. S S S  E. S S S E. S S S S S S S S

D#|--------------------------------------------------------|
A#|-------------------------------------------------------o|
F#|--------------------------------------------------------|
C#|--------------------------------------------------------|
G#|-------6---------3---------6--------3------------------o|
C#|-0-0-0-6--0-0-0--3--0-0-0--6--0-0-0-3--0-0-0-0-0-0-0-0--|
|
| (Gtr 2)
| PM--|    PM--|  ~~~PM--|  ~~~PM--| ~~ PM------------|
| S S S E. S S S  E. S S S  E. S S S E. S S S S S S S S

D#|--------------------------------------------------------|
A#|-------------------------------------------------------o|
F#|--------------------------------------------------------|
C#|--------------------------------------------------------|
G#|-------6----------------------------3------------------o|
C#|-0-0-0-6--0-0-0-[3]-0-0-0-[6]-0-0-0-3--0-0-0-0-3-3-0-0--|

[Pre-Chorus]
(Gtrs 1, 2)
         PM|    PM|    PM|    PM|                PM|   PM|   PM|   PM|
       S S S  S S S  S S S  S S S  S S  S S    S S S S S S S S S S S S S S S S
D#|----------------------------------------|-----------------------------------|
A#|o---------------------------------------|-----------------------------------|
F#|----------------------------------------|-----------------------------------|
C#|----------------------------------------|-----------------------------------|
G#|o---------------------------------------|-----------------------------------|
C#|--10-0-0-12-0-0-13-0-0-12-0-0-10p0h12p0h|=10-0-0-8-0-0-7-0-0-8-0-0-7p0h5p0--|

(Gtr 1)
            PM|         PM|
    S S S S S S S S S S S S S S S S
D#|---------------------------------|
A#|---------------------------------|
F#|---------------------------------|
C#|---------------------------------|
G#|---------------------------------|
C#|-3h5-5-5-5-5-3h5-5-5-5-5-3h5-5-5-|

   (Gtr 2)
  |         PM|         PM|
  | S S S S S S S S S S S S S S S S
D#|---------------------------------|
A#|---------------------------------|
F#|---------------------------------|
C#|---------------------------------|
G#|---------------------------------|
C#|-0h5-5-5-5-5-0h5-5-5-5-5-0h5-5-5-|


  1.                                  2.
  PM----|           PM|
  S S S S S S S S S S S S S S S S     H.      a  Q

D#|----------------------------------|-----------------|
A#|---------------------------------o|-----------------|
F#|----------------------------------|-----------------|
C#|----------------------------------|-----------------|
G#|---------------3h5-6-5-3---------o|-1-------x-------|
C#|-0-1-0-1-3h5h6-----------6p5p3h5--|-1-------x-15\---|
|
| PM----|           PM|
| S S S S S S S S S S S S S S S S     H.      a  Q

D#|----------------------------------|-----------------|
A#|---------------------------------o|-----------------|
F#|----------------------------------|-----------------|
C#|---------------1h3-5-3-1----------|-----------------|
G#|---------0h1h3-------------------o|-1-------x-------|
C#|-3-1-3-1-----------------3p1p0h1--|-1-------x-12\---|

[Chorus]
   4/4
    Gtrs I, II
    PM----|                            PM--|
    S S S S  S  S  S  S  S  S  S  S  S S S S

D#|-------------------------------------------|
A#|o------------------------------------------|
F#|-------------------------------------------|
C#|-------------------------------------------|
G#|o------------------------------------------|
C#|--0-0-0-0-12h13-13-13-10h12-12-12-\3-0-0-0-|


    PM---------------------------------|
  S S S S  S  S  S  S S S S S  S  S  S  S

D#|-----------------------------------------|
A#|-----------------------------------------|
F#|-----------------------------------------|
C#|-----------------------------------------|
G#|-----------------------------------------|
C#|-3-0-0-0-15-15-15-15-0-0-0-0-15-15-15-15-|


  PM----|                            PM--|       PM----|         PM--------|
  S S S S  S  S  S  S  S  S  S  S  S S S S   S S S S S S S S S S S S S S S S  (4x)

D#|------------------------------------------|----------------------------------|
A#|------------------------------------------|---------------------------------o|
F#|------------------------------------------|----------------------------------|
C#|------------------------------------------|----------------------------------|
G#|------------------------------------------|---------------------------------o|
C#|-0-0-0-0-12h13-13-13-10h12-12-12-\3-0-0-0-|-3p0-0-0-0-0-3p0h3p0-0-0-0-0-0-0--|

[Outro]
(Gtrs 1, 2, 4)
          PM--------|     PM--------|       PM--------|   PM|   PM|   PM
      S S S S S S S S S S S S S S S S   S S S S S S S S S S S S S S S S

D#|----------------------------------|----------------------------------|
A#|o---------------------------------|----------------------------------|
F#|----------------------------------|----------------------------------|
C#|----------------------------------|----------------------------------|
G#|o---------------------------------|----------------------------------|
C#|--1p0-0-0-0-0-0-0-1p0-0-0-0-0-0-0-|-1p0-0-0-0-0-0-0-3-0-0-5-0-0-6-0--|


        PM--------|     PM--------|       PM--------|   PM|   PM|   PM
    S S S S S S S S S S S S S S S S   S S S S S S S S S S S S S S S S

D#|---------------------------------|---------------------------------|
A#|---------------------------------|---------------------------------|
F#|---------------------------------|---------------------------------|
C#|---------------------------------|---------------------------------|
G#|---------------------------------|---------------------------------|
C#|-1p0-0-0-0-0-0-0-1p0-0-0-0-0-0-0-|-1p0-0-0-0-0-0-0-3-0-0-5-0-0-6-0-|


        PM--------|     PM--------|       PM--------|   PM|   PM|   PM
    S S S S S S S S S S S S S S S S   S S S S S S S S S S S S S S S S

D#|---------------------------------|---------------------------------|
A#|---------------------------------|---------------------------------|
F#|---------------------------------|---------------------------------|
C#|---------------------------------|---------------------------------|
G#|---------------------------------|---------------------------------|
C#|-1p0-0-0-0-0-0-0-1p0-0-0-0-0-0-0-|-1p0-0-0-0-0-0-0-3-0-0-5-0-0-6-0-|


        PM--------|     PM------------------|           PM|
    S S S S S S S S S S S S S S S S   S S S S S S S S S S S S S S S S

D#|---------------------------------|----------------------------------|
A#|---------------------------------|---------------------------------o|
F#|---------------------------------|----------------------------------|
C#|---------------------------------|----------------------------------|
G#|---------------------------------|---------------3h5-6-5-3---------o|
C#|-1p0-0-0-0-0-0-0-1p0-0-0-0-0-0-0-|-0-1-0-1-3h5h6-----------6p5p3h5--|


    w          S S S S S S S S S S S S S S S S
D#|----------|-x-x---------x-x---------x-x-----*|
A#|----------|-x-x-----x-x-x-x-x-x---x-x-x-x---*|
F#|----------|-x-x-----x-x-----x-x---x---------*|
C#|----------|-x-x-----x-x-----x-x---x---x-x---*|
G#|-0--------|-x-x-x-x-x-x-x-x-x-x---x-x---x---*|
C#|-0--------|-x-x-x-x-----x-x-----x---x-x---x-*|


************************************

| h    Hammer-on
| \    Slide down
| (n)  Ghost note
| x    Dead note
| PM   Palm mute
| p    Pull-off
| /    Slide up
| ~    Vibrato
| b    Bend
| [n]  Artificial harmonic (Pinch harmonic)
| *    Natural harmonic

************************************

            
            
Suggest correction
Creating personal tab
Creating personal tab
You can edit any tab online and save it as your Personal.

You can edit, replace or remove any tab part or add personal notes – all changes will be seen only by you.

Personal tabs can be accessed anytime from any device, even offline.
Learn more »
comments
print report bad tab
guest
You may want to rate the tab now too:
select rating
Wanna post a correction for this tab? Suggest correction