Oops, an error
Loading. Please wait.

Faded Line bass

version 2
version 2
698 views 1 this week
1 commentread comment
1 2 3 4 5
1 last vote to show rating
add to favorites
×
Save as Personal and add changes to this tab that will be seen only by you. Learn more ›
×
You can save this tab as Personal to edit and correct it or add notes. All changes will be seen only by you. Learn more »
launch autoscroll
font size
0
reset
guitar tuner
edit
Autoscroll
slow
fast
+/-
esc
set tempo
stop
Author
-------------------------------------------------------------------------------
			     The Faded Line - Lamb of God
-------------------------------------------------------------------------------

Tabbed By : TkBass326 
e-mail: kiesgent@gmail.com 

Tuning: Drop D

INTRO: Repeat 3x
G|---------------------------------------------------------------------------|
D|-----4-4-4-4-4-4-4----3-3-3-3-3-3-3----6-6-6------------------------------+|
A|---------------------------------------------6-6-6-6----5-5-5--------------|
D|--00--0-0-0-0-0-0-000--0-0-0-0-0-0-000--0-0-0-0-0-0-000--0-0--650-350-65--+|


BRIDGE: Repeat 1x
G|---------------------------------------------------------------------------|
D|---------------------------------------------------------------------------|
A|---------------------------------------------------------------x-----------|
D|-00-00-00-00-00-00-00-00----00-00-00-00-00-00-003----3-3-3-3-3-3----3-3-3--|

G|-----------|--------------------------------------------------------------|
D|----------+|--------------------------------------------------------------|
A|-----------|------rest---------guitar---------------part------------------|
D|4-4-1-1---+|-------------------------------------------------------07\----|

G|--------------------------------------------------------------------------|
D|--------------------------------------------------------------------------|
A|-------------x---------------x---------------x---------------x------------|
D|-0-0-0-0-0-0-0---0-0-0-0-0-0-0---0-0-0-0-0-0-0---0-0-0-0-0-0-0------------|


REPEAT x1
G|-|----------------------------------------------------------------|-------|
D|-|+--------------------------------------------------------------+|-------|
A|-|---------------------------x---------------------------x--------|-------|
D|-|+--0-000-000-000-000-000-000---0-000-000-000-000-000-000-------+|-------|


CHORUS:
G|---------------------------------------------------------------------------|
D|----2-3-5-7-5-3-2------2-3-5-7-5-------------------------------------------|
A|----------------------------------4-4-4-445----------------------x---------|
D|-00--0-0-0-0-0-0----00--0-0-0-0-0----------000-000-000-000-000-000---------|

G|---------------------------------------------------------------------------|
D|--------------------------------2-3-5-7-5-3-2------2-3-5-7-5---------------|
A|---------------------------------------------------------------4-4-4-445---|
D|--0-000-000-000-000-000-000--00--0-0-0-0-0-0----00--0-0-0-0-0--------------|


REPEAT 5x
G|-|---------------------------------------------------|---------------------|
D|-|+-------------------------------------------------+|---------------------|
A|-|---------------------------------------------------|---------------------|
D|-|+-000000000--000000000--000000000--000000000------+|---------------------|



REPEAT 3x
G|-|--------------------------------------|----------------------------------|
D|-|+------------------------------------+|----------------------------------|
A|-|--------------------------------------|----------------------------------|
D|-|+-008008070070070500500504004004-----+|---0-1----------------------------|



G|---------------------------------------------------------------------------|
D|-----4-4-4-4-4-4-4----3-3-3-3-3-3-3----6-6-6------------------x-----------+|
A|---------------------------------------------6-6-6-6----5-5-5-5------------|
D|--00--0-0-0-0-0-0-000--0-0-0-0-0-0-000--0-0-0-0-0-0-000--0-0--------------+|



REPEAT x1
G|-|----------------------------------------------------------------|--------|
D|-|+--------------------------------------------------------------+|--------|
A|-|---------------------------x------------------------------------|--------|
D|-|+--0-000-000-000-000-000-000---0-000-000-000-000-000-000-------+|--------|



G|---------------------------------------------------------------------------|
D|----2-3-5-7-5-3-2------2-3-5-7-5-------------------------------------------|
A|----------------------------------4-4-4-445----------------------x---------|
D|-00--0-0-0-0-0-0----00--0-0-0-0-0----------000-000-000-000-000-000---------|


G|---------------------------------------------------------------------------|
D|--------------------------------2-3-5-7-5-3-2------2-3-5-7-5---------------|
A|--------------------------------------------------------------4444---------|
D|--0-000-000-000-000-000-000--00--0-0-0-0-0-0----00--0-0-0-0-0--------------|


G|---------------------------------------------------------------------------|
D|----2-3-5-7-5-3-2----------------------------------------------------------|
A|---------------------------------------------------------------------------|
D|-00--0-0-0-0-0-0----002-3-2--007-8-7--0------------------------------------|
                                              (let it ring)


OUTRO:
REPEAT x11
G|-|-------------------------------------------|-----------------------------|
D|-|+-----------------------------------------+|-----------------------------|
A|-|-------------------------------------------|-----------------------------|
D|-|+--0000-00000---0000-0000000--0--3--0--1--+|-----------------------------|

My first tab. Please rate and comment :D 


| /  slide up               |                    |
| \  slide down             |+                  +|
| h  hammer-on              |    REPEAT SIGNS    |
| p  pull-off               |+                  +| 
| ~  vibrato
| +  harmonic
| x  Mute note
===============================================================================

            
            
Suggest correction
Creating personal tab
Creating personal tab
You can edit any tab online and save it as your Personal.

You can edit, replace or remove any tab part or add personal notes – all changes will be seen only by you.

Personal tabs can be accessed anytime from any device, even offline.
Learn more »
Give kudos to tab author, rate the tab!
1 2 3 4 5
comments
print report bad tab
1 comment total.
0 reply
escalade 346 Feb 04, 2009 04:53 PM

Sorry dude, but John almost never uses the 2nd string, and if you listen to the song, you can notice that he mostly plays along with the bass drum, not the guitars.

guest
You may want to rate the tab now too:
select rating
Wanna post a correction for this tab? Suggest correction