Oops, an error
Loading. Please wait.

Faded Line tab

version 4
990 views 1 this week
1 commentread comment
1 2 3 4 5
2 more votes to show rating
add to favorites
×
Save as Personal and add changes to this tab that will be seen only by you. Learn more ›
×
You can save this tab as Personal to edit and correct it or add notes. All changes will be seen only by you. Learn more »
launch autoscroll
font size
0
reset
how to read this tab
guitar tuner
edit
Autoscroll
slow
fast
+/-
esc
set tempo
stop
||-----------------------|---------------------|-----------------------|----------------------|
||o----------------------|---------------------|-----------------------|----------------------|
||-----------------------|---------------------|-----------------------|----------------------|
||-----------------------|---------------------|-----------------------|----------------------|
||o----------------------|---------------------|-----------------------|----------------------|
||--0-0-0-14-0-14-0-14-0-|-14-0-14-0-14-0-14-0-|-0-0-0-13-0-13-0--13-0-|--13-0-13-0-13-0-13-0-|


  PM--|    PM   PM   PM    PM  PM  PM  PM-
  S S E  E E  E E  E E   E E E E E E E E
|----------------------|----------------------|
|----------------------|----------------------|
|----------------------|----------------------|
|----------------------|----------------------|
|----------------------|----------------------|
|-0-0-0-16-0-16-0-16-0-|-11-0-11-0-11-0--11-0-|


 -----|   PM  PM  PM
  S S E E E E E E E    E E E E E E  E E    4x
|----------------------|----------------------||
|----------------------|---------------------o||
|----------------------|--------7-------------||
|----------------------|-10-8-7---8-----------||
|----------------------|------------9-10-6---o||
|-0-0-0-10-0-10-0-10-0-|----------------------||

Repeat 4 times


                             6/4
    PM----------------------------------------------|
    S S E S S E S S E S S E   S S E S S E S S E S S E H
||--------------------------|------------------------------|
||o-------------------------|------------------------------|
||--------------------------|------------------------------|
||--------------------------|------------------------------|
||o-------------------------|------------------------------|
||--0-0-0-0-0-0-0-0-0-0-0-0-|-0-0-0-0-0-0-0-0-0-0-0-0------|


 4/4                       6/4
  PM--------------------------------------------|
  S S E S S E S S E S S E   S S E S S E S S E S S H    +E
|-------------------------|-----------------------------------|
|-------------------------|-----------------------------------|
|-------------------------|-----------------------------------|
|-------------------------|-----------------------3----(3)----|
|-------------------------|-----------------------3----(3)----|
|-0-0-0-0-0-0-0-0-0-0-0-0-|-0-0-0-0-0-0-0-0-0-0-0-3----(3)----|


 4/4
  PM----------------------------------|
  S S E S S E S S E S S E   S S E S S E  H
|-------------------------|-------------------|
|-------------------------|-------------------|
|-------------------------|-------------------|
|-------------------------|-------------------|
|-------------------------|-------------------|
|-3-3-3-3-3-3-3-3-3-3-3-3-|-3-3-3-3-3-3-------|


  PM----------------------------------------------|
  S S E S S E S S E S S E   S S E S S E S S S S E E
|-------------------------|-----------------------------||
|-------------------------|----------------------------o||
|-------------------------|-----------------------------||
|-------------------------|-----------------------------||
|-------------------------|----------------------------o||
|-3-3-3-3-3-3-3-3-3-4-4-4-|-4-4-4-7-3-0-6-3-0-3-0-0-----||


  Gtr I
  PM----------------------|
  E E E E E E E E   E E E E  S  S S  S  S S  E
|-----------------|-------------------------------|
|-----------------|-------------------------------|
|-----------------|-------------------------------|
|-----------------|-------------------------------|
|-----------------|-------------------------------|
|-0-0-0-0-0-0-0-0-|-0-0-0-0-19-15-0-18-15-0-15----|


                            Gtrs I, II
  E E E E E E E E   E E E E S Q..
|-----------------|------------------|
|-----------------|------------------|
|-----------------|------------------|
|-----------------|---------0-8------|
|-----------------|---------0-8------|
|-0-0-0-0-0-0-0-0-|-0-0-0-0-0-8\-----|


    PM------------------------|
    E E E E  E E E E    E E E E   S  S S  S   S S  E     4x
||--------------------|----------------------------------||
||o-------------------|---------------------------------o||
||--------------------|----------------------------------||
||--------------------|----------------------------------||
||o-------------------|---------------------------------o||
||--0-0-0-0--0-0-0-0--|-0-0-0-0--19-15-0-18--15-0-15-----||


    PM----------------------------------|
    E S S E S S E S S E S S   E S S E S S  S  S S  S  S S  E     4x
||--------------------------|------------------------------------||
||o-------------------------|-----------------------------------o||
||--------------------------|------------------------------------||
||--------------------------|------------------------------------||
||o-------------------------|-----------------------------------o||
||--0-0-0-0-0-0-0-0-0-0-0-0-|-0-0-0-0-0-0-19-15-0-18-15-0-15-----||


    Q=180
    PM--|   PM|   PM|    PM|     PM|    PM|   PM|
    S S E E S S E S S  E S S   E S S  E S S E S S Q
||---------------------------|-------------------------|
||o--------------------------|-------------------------|
||---------------------------|-------------------------|
||---------------------------|-7-----------------------|
||o-------7-----8-----10-----|-------10-----8-----7----|
||--8-8-8---8-8---8-8----8-8-|---8-8----8-8---8-8------|


  PM--|   PM|   PM|   PM|     PM|   PM|
  S S E E S S E S S E S S   E S S E S S S S E S S E
|-------------------------|----------------------------|
|-------------------------|----------------------------|
|-------------------------|----------------------------|
|-------------------5-----|-7-----5--------------------|
|-------7-----8-----------|-------------5h7p5-4h5p4----|
|-5-5-5---5-5---5-5---5-5-|---5-5---5-5----------------|


  Q=190
  PM----------------------------------|
  E S S E S S E S S E S S   E S S E S S  S  S S  S  S S  E
|-------------------------|-----------------------------------|
|-------------------------|-----------------------------------|
|-------------------------|-----------------------------------|
|-------------------------|-----------------------------------|
|-------------------------|-----------------------------------|
|-0-0-0-0-0-0-0-0-0-0-0-0-|-0-0-0-0-0-0-19-15-0-18-15-0-15----|


  PM----------------------------------|
  E S S E S S E S S E S S   E S S E S S  S  S S  S  S S  E
|-------------------------|------------------------------------||
|-------------------------|-----------------------------------o||
|-------------------------|------------------------------------||
|-------------------------|------------------------------------||
|-------------------------|-----------------------------------o||
|-0-0-0-0-0-0-0-0-0-0-0-0-|-0-0-0-0-0-0-19-15-0-18-15-0-15-----||


    Q=190
    S S S S S S S S H      S S S S S S S S H     S S S S S S S S H
||-----------------------|---------------------|-------------------|
||o----------------------|---------------------|-------------------|
||-----------------------|---------------------|-------------------|
||-----------------------|---------------------|-------------------|
||o-0-0-0-0-0-0-0-0------|-0-0-0-0-0-0-0-0-----|-0-0-0-0-0-0-0-0---|
||--0-0-0-0-0-0-0-0------|-0-0-0-0-0-0-0-0-----|-0-0-0-0-0-0-0-0---|


  S S S S S S S S S S S S S S E
|-----------------------------------||
|----------------------------------o||
|-----------------------------------||
|-----------------------------------||
|-0-0-0-0-0-0-0-0-2-0-2-2-2-2------o||
|-0-0-0-0-0-0-0-0-2-0-2-2-2-2-------||


    Q=190
    Gtr I
    S S S S  S  S  S  S H
||---------------------------|
||o--------------------------|
||---------------------------|
||---------------------------|
||o-0-0-0-0--0--0--0--0------|
||--0-0-0-0--0--0--0--0------|

   Gtr II
   H        E  E  E  E
||---------------------------|
||o--------------------------|
||---------------------------|
||---------------------------|
||o--------------------------|
||----------12h13-12h13------|


   S S  S  S S  S  S  S H     S S S S  S  S  S  S H
|---------------------------|-----------------------|
|---------------------------|-----------------------|
|---------------------------|-----------------------|
|---------------------------|-----------------------|
|--0-0--0--0-0--0--0--0-----|-0-0-0-0--0--0--0--0---|
|--0-0--0--0-0--0--0--0-----|-0-0-0-0--0--0--0--0---|


  Q    E  Q    E  E  E       H        E  E  E  E
|---------------------------|-----------------------|
|---------------------------|-----------------------|
|---------------------------|-----------------------|
|---------------------------|-----------------------|
|---------------------------|-----------------------|
|-17---13p12---13-13-10-----|---------12h13-12h13---|


  Gtr I
   S S  S  S S  S S  S H
|------------------------------||
|-----------------------------o||
|------------------------------||
|------------------------------||
|--0-0--0--0-0--0-0--0--------o||
|--0-0--0--0-0--0-0--0---------||

 Gtr II

  Q    E  Q    E    E   E
|------------------------------||
|-----------------------------o||
|------------------------------||
|------------------------------||
|-----------------------------o||
|-17---13-12---13---10---------||


    Q=190
    Gtr I
    S S S S  S  S  S  S H
||---------------------------|
||o--------------------------|
||---------------------------|
||---------------------------|
||o-0-0-0-0--0--0--0--0------|
||--0-0-0-0--0--0--0--0------|

   Gtr II
   H        E  E  E  E
||---------------------------|
||o--------------------------|
||---------------------------|
||---------------------------|
||o--------------------------|
||----------12h13-12h13------|

   Gtr III
   H        E  E  E  E
||---------------------------|
||o--------------------------|
||---------------------------|
||---------------------------|
||o---------12h13-12h13------|
||---------------------------|


   S S  S  S S  S  S  S H     S S S S  S  S  S  S H
|---------------------------|-----------------------|
|---------------------------|-----------------------|
|---------------------------|-----------------------|
|---------------------------|-----------------------|
|--0-0--0--0-0--0--0--0-----|-0-0-0-0--0--0--0--0---|
|--0-0--0--0-0--0--0--0-----|-0-0-0-0--0--0--0--0---|


  Q    E  Q    E  E  E       H        E  E  E  E
|---------------------------|-----------------------|
|---------------------------|-----------------------|
|---------------------------|-----------------------|
|---------------------------|-----------------------|
|---------------------------|-----------------------|
|-17---13p12---13-13-10-----|---------12h13-12h13---|


  Q    E  Q    E  E  E       H        E  E  E  E
|---------------------------|-----------------------|
|---------------------------|-----------------------|
|---------------------------|-----------------------|
|---------------------------|-----------------------|
|-17---13p12---13-13-10-----|---------12h13-12h13---|
|---------------------------|-----------------------|


  1.                               2.
  Gtr I
   S S S S  S S  S S H              S S S S  S S  S S S S  S S  S S S S
|-------------------------------||-----------------------------------------|
|------------------------------o||-----------------------------------------|
|-------------------------------||-----------------------------------------|
|-------------------------------||-----------------------------------------|
|--0-0-0-0--0-0--0-0-----------o||--0-0-0-0--0-0--0-0-0-0--0-0--0-0-0-0----|
|--0-0-0-0--0-0--0-0------------||--0-0-0-0--0-0--0-0-0-0--0-0--0-0-0-0----|

 Gtr II
  ~~                               ~~
  Q        E    Q      E  E E      Q        E    Q        E    E   E
|-------------------------------||-----------------------------------------|
|------------------------------o||-----------------------------------------|
|-------------------------------||-----------------------------------------|
|-------------------------------||-----------------------------------------|
|------------------------------o||-----------------------------------------|
|-17-------13---12-----13-10----||-17-------13---12-------13---10----------|

 Gtr III
  ~~                               ~~
  Q        E    Q      E  E E      Q        E    Q        E    E   E
|-------------------------------||-----------------------------------------|
|------------------------------o||-----------------------------------------|
|-------------------------------||-----------------------------------------|
|-------------------------------||-----------------------------------------|
|-17-------13---12-----13-10---o||-17-------13---12-------13---10----------|
|-------------------------------||-----------------------------------------|


    Q=180
    Gtrs I, II
    PM|   PM|   PM    PM|   PM|   PM
    E E E E E E E E   E E E E E E E E
||------------------|-----------------|
||o-----------------|-----------------|
||------------------|-----------------|
||------8-----8---7-|-----7-----7---4-|
||o-----7-----7---6-|-----6-----6---6-|
||--9-9---9-9---9---|-8-8---8-8---8---|


                1.,2.,3.
  PM|   PM|   PM    PM|   PM----------------|
  E E E E E E E E   E E E S S S S S S S S S S     4x
|-----------------|-------------------------------||
|-----------------|------------------------------o||
|-----------------|-------------------------------||
|-----4-----4---3-|-----3-------------------------||
|-----6-----6---5-|-----5------------------------o||
|-5-5---5-5---5---|-4-4---4-4-7-3-0-6-3-0-3-0-----||


  4.
    PM|   PM----|
  E E E E E S S E E
|-----------------------|
|-----------------------|
|-7-----7---------7\----|
|-7-----7---------7\----|
|-5-----5---------5\----|
|---4-4---4-0-0-0-------|


  Q=190
 4/4
  Gtrs I, II
  PM--|   PM  PM  PM    PM  PM  PM  PM------|   PM  PM  PM    PM  PM  PM  PM
  S S E E E E E E E   E E E E E E E E   S S E E E E E E E   E E E E E E E E
|-------------------|-----------------|-------------------|------------------|
|-------------------|-----------------|-------------------|------------------|
|-------------------|-----------------|-------------------|------------------|
|-------------------|-----------------|-------------------|------------------|
|-------9---9---9---|-9---9---9---9---|-------8---8---8---|-8---8---8---8----|
|-0-0-0---0---0---0-|---0---0---0---0-|-0-0-0---0---0---0-|---0---0---0---0--|


  Gtrs I, II
  PM--|    PM   PM   PM    PM  PM  PM  PM-
  S S E  E E  E E  E E   E E E E E E E E
|----------------------|-----------------|
|----------------------|-----------------|
|----------------------|-----------------|
|----------------------|-----------------|
|-------11---11---11---|-6---6---6---6---|
|-0-0-0----0----0----0-|---0---0---0---0-|


                      Gtr I
 -----|   PM  PM  PM
  S S E E E E E E E    E E E E E E  E E
|-------------------|-------------------|
|-------------------|-------------------|
|-------------------|--------7----------|
|-------------------|-10-8-7---8--------|
|-------5---5---5---|------------9-10-6-|
|-0-0-0---0---0---0-|-------------------|


    PM----------------------------------|
    E S S E S S E S S E S S   E S S E S S  S  S S  S  S S  E     4x
||--------------------------|------------------------------------||
||o-------------------------|-----------------------------------o||
||--------------------------|------------------------------------||
||--------------------------|------------------------------------||
||o-------------------------|-----------------------------------o||
||--0-0-0-0-0-0-0-0-0-0-0-0-|-0-0-0-0-0-0-19-15-0-18-15-0-15-----||


  Q=180
  PM--|   PM|   PM|    PM|     PM|    PM|   PM|
  S S E E S S E S S  E S S   E S S  E S S E S S Q
|--------------------------|-------------------------|
|--------------------------|-------------------------|
|--------------------------|-------------------------|
|--------------------------|-7-----------------------|
|-------7-----8-----10-----|-------10-----8-----7----|
|-8-8-8---8-8---8-8----8-8-|---8-8----8-8---8-8------|


  PM--|   PM|   PM|   PM|     PM|   PM|
  S S E E S S E S S E S S   E S S E S S S S E S S E
|-------------------------|----------------------------|
|-------------------------|----------------------------|
|-------------------------|----------------------------|
|-------------------5-----|-7-----5--------------------|
|-------7-----8-----------|-------------5h7p5-4h5p4----|
|-5-5-5---5-5---5-5---5-5-|---5-5---5-5----------------|


  Q=190
  PM----------------------------------|
  E S S E S S E S S E S S   E S S E S S  S  S S  S  S S  E
|-------------------------|-----------------------------------|
|-------------------------|-----------------------------------|
|-------------------------|-----------------------------------|
|-------------------------|-----------------------------------|
|-------------------------|-----------------------------------|
|-0-0-0-0-0-0-0-0-0-0-0-0-|-0-0-0-0-0-0-19-15-0-18-15-0-15----|


  PM----------------------------------|
  E S S E S S E S S E S S   E S S E S S  S  S S  S  S S  E
|-------------------------|-----------------------------------|
|-------------------------|-----------------------------------|
|-------------------------|-----------------------------------|
|-------------------------|-----------------------------------|
|-------------------------|-----------------------------------|
|-0-0-0-0-0-0-0-0-0-0-0-0-|-0-0-0-0-0-0-19-15-0-18-15-0-15----|


    Q=180
    PM--|   PM|   PM|    PM|     PM|    PM|   PM|
    S S E E S S E S S  E S S   E S S  E S S E S S Q
||---------------------------|-------------------------|
||o--------------------------|-------------------------|
||---------------------------|-------------------------|
||---------------------------|-7-----------------------|
||o-------7-----8-----10-----|-------10-----8-----7----|
||--8-8-8---8-8---8-8----8-8-|---8-8----8-8---8-8------|


                                    1.                  2.
                                                       3/4
  PM--|   PM|   PM|   PM|     PM|   PM|                 PM|   PM|    PM|
  S S E E S S E S S E S S   E S S E S S S S E S S E     S S E S S  E S S E
|-------------------------|--------------------------||---------------------|
|-------------------------|-------------------------o||---------------------|
|-------------------------|--------------------------||---------------------|
|-------------------5-----|-7-----5------------------||-----9-----10-----8--|
|-------7-----8-----------|-------------5h7p5-4h5p4-o||-----7------7-----7--|
|-5-5-5---5-5---5-5---5-5-|---5-5---5-5--------------||-7-7---7-7----7-7----|


  Q=200
 6/4                      4/4                5/4
  Gtr I
  PM----|    PM------|      PM----|   PM------------|  ~~    ~~~
  E E E E E  E E E E E Q    E E E E E E E E   E E E E  Q  E  Q.
|------------------------|------------------|--------------------|
|------------------------|------------------|--------------------|
|------------------------|------------------|--------------------|
|------------------------|------------------|--------------------|
|-0-0-0-0----0-0-0-0-0---|--0-0-0-0---0-0-0-|-0-0-0-0-/5--0-/7---|
|-0-0-0-0----0-0-0-0-0---|--0-0-0-0---0-0-0-|-0-0-0-0-/5--0-/7---|


  Q=200
 6/4                      4/4               5/4
  Gtr I
  PM----|    PM------|     PM----|   PM------------|  ~~    ~~~
  E E E E E  E E E E E Q   E E E E E E E E   E E E E  Q  E  Q.
|------------------------|-----------------|---------------------|
|------------------------|-----------------|---------------------|
|------------------------|-----------------|---------------------|
|------------------------|-----------------|---------------------|
|-0-0-0-0----0-0-0-0-0---|-0-0-0-0---0-0-0-|-0-0-0-0-/5--0-/7----|
|-0-0-0-0----0-0-0-0-0---|-0-0-0-0---0-0-0-|-0-0-0-0-/5--0-/7----|

 Gtr II
                                                     ~~    ~~~
 W              H         W                 H        Q  E  Q.
|------------------------|-----------------|---------------------|
|------------------------|-----------------|---------------------|
|------------------------|-----------------|---------------------|
|------------------------|-----------------|---------------------|
|------------------------|-----------------|---------/5--0-/7----|
|------------------------|-----------------|---------/5--0-/7----|


    Q=200
   6/4
    Gtrs I, II
     PM--------|    PM---------|
     E     E E E E  E E   E  E E Q
||---------------------------------|
||o--------------------------------|
||---------------------------------|
||---------------------------------|
||o--0-----0-0-0----0-0---0--0-0---|
||---0-----0-0-0----0-0---0--0-0---|

   Gtr III
    Q       Q   Q  Q     Q    Q
||---------------------------------|
||o--------------------------------|
||---------------------------------|
||---7S======5------8S====7--------|
||o--------------------------------|
||---------------------------------|

   Gtr IV
    W                   +H
||---------------------------------|
||o--------------------------------|
||--18pb20r=============(18)-------|
||---------------------------------|
||o--------------------------------|
||---------------------------------|


 4/4                    5/4
       PM----|   PM---------------|  ~~~     ~~~
       E E E E E E E E     E  E E E  Q    E  Q.  3x
|----------------------|-------------------------||
|----------------------|------------------------o||
|----------------------|-------------------------||
|----------------------|-------------------------||
|------0-0-0-0---0-0-0-|---0--0-0-0-/5----0-/7--o||
|------0-0-0-0---0-0-0-|---0--0-0-0-/5----0-/7---||

   Q    Q   Q   Q         Q  Q   Q     Q Q      3x
|----------------------|-------------------------||
|----------------------|------------------------o||
|----------------------|-------------------------||
|--10S===8-------8S====|===7------7S====4--------||
|----------------------|------------------------o||
|----------------------|-------------------------||

  +W                     +H         H.          3x
|----------------------|-------------------------||
|----------------------|------------------------o||
|-(18)-----------------|-(18)--------------------||
|----------------------|-------------------------||
|----------------------|------------------------o||
|----------------------|-------------------------||


  Q=200
 6/4
  Gtrs I, II
   PM--------|    PM---------|
   E     E E E E  E E   E  E  E Q
|---------------------------------|
|---------------------------------|
|---------------------------------|
|---------------------------------|
|--0-----0-0-0----0-0---0--0--0---|
|--0-----0-0-0----0-0---0--0--0---|
|
 Gtr III
  W                Q         Q
|---------------------------------|
|---------------------------------|
|---------------------------------|
|----------------------------13S==|
|---------------------------------|
|---------------------------------|

  W                   +H
|---------------------------------|
|---------------------------------|
|-18pb20r=============(18)--------|
|---------------------------------|
|---------------------------------|
|---------------------------------|


 4/4                       5/4
       PM-----|     PM----------------|   ~~~      ~~~
       E  E E  E E  E E E     E   E E  E  Q     E  Q.
|-------------------------|----------------------------|
|-------------------------|----------------------------|
|-------------------------|----------------------------|
|-------------------------|----------------------------|
|------0--0-0--0----0-0-0-|---0---0-0--0-/5-----0-/7---|
|------0--0-0--0----0-0-0-|---0---0-0--0-/5-----0-/7---|

   Q     Q    Q    Q         Q   Q    Q      Q    Q
|-------------------------|----------------------------|
|-------------------------|----------------------------|
|-------------------------|----------------------------|
|--12----12S==15---15S====|==16--16S==15-----15S==12---|
|-------------------------|----------------------------|
|-------------------------|----------------------------|

  +W                        +H           H.
|-------------------------|----------------------------|
|-------------------------|----------------------------|
|-(18)--------------------|-(18)-----------------------|
|-------------------------|----------------------------|
|-------------------------|----------------------------|
|-------------------------|----------------------------|


    Q=200
   6/4
    Gtrs I, II
     PM--------|    PM---------|
     E     E E E E  E E   E  E E Q
||---------------------------------|
||o--------------------------------|
||---------------------------------|
||---------------------------------|
||o--0-----0-0-0----0-0---0--0-0---|
||---0-----0-0-0----0-0---0--0-0---|

   Gtr III
    Q       Q   Q  Q     Q    Q
||---------------------------------|
||o--------------------------------|
||---------------------------------|
||---7S======5------8S====7--------|
||o--------------------------------|
||---------------------------------|

    W                   +H
||---------------------------------|
||o--------------------------------|
||--18pb20r=============(18)-------|
||---------------------------------|
||o--------------------------------|
||---------------------------------|


 4/4                    5/4
       PM----|   PM---------------|  ~~~     ~~~
       E E E E E E E E     E  E E E  Q    E  Q.  3x
|----------------------|-------------------------||
|----------------------|------------------------o||
|----------------------|-------------------------||
|----------------------|-------------------------||
|------0-0-0-0---0-0-0-|---0--0-0-0-/5----0-/7--o||
|------0-0-0-0---0-0-0-|---0--0-0-0-/5----0-/7---||

   Q    Q   Q   Q         Q  Q   Q     Q    Q   3x
|----------------------|-------------------------||
|----------------------|------------------------o||
|----------------------|-------------------------||
|--10S===8-------8S====|===7------7S====4--------||
|----------------------|------------------------o||
|----------------------|-------------------------||

  +W                     +H         H.          3x
|----------------------|-------------------------||
|----------------------|------------------------o||
|-(18)-----------------|-(18)--------------------||
|----------------------|-------------------------||
|----------------------|------------------------o||
|----------------------|-------------------------||


  Q=200
 6/4
  Gtrs I, II
   PM--------|   PM---------|
   E     E E E E E E E   E  E  Q
|---------------------------------|
|---------------------------------|
|---------------------------------|
|---------------------------------|
|--0-----0-0-0---0-0-0---0--0-----|
|--0-----0-0-0---0-0-0---0--0-----|

 Gtr III
  W                     Q     Q
|---------------------------------|
|---------------------------------|
|---------------------------------|
|-----------------------------13S=|
|---------------------------------|
|---------------------------------|

  W                    +H
|---------------------------------|
|---------------------------------|
|-18pb20r==============(18)-------|
|---------------------------------|
|---------------------------------|
|---------------------------------|


 4/4                     5/4
    PM------|    PM-----------------|  ~~~     ~~~
    E  E  E E  E E  E E     E  E  E E  Q    E  Q.
|-----------------------|-----------------------------|
|-----------------------|-----------------------------|
|-----------------------|-----------------------------|
|-----------------------|-----------------------------|
|---0--0--0-0----0--0-0-|---0--0--0-0-/5----0-/7------|
|---0--0--0-0----0--0-0-|---0--0--0-0-/5----0-/7------|

   Q     Q    Q    Q       Q     Q    Q    Q      Q
|-----------------------|-----------------------------|
|-----------------------|-----------------------------|
|-----------------------|-----------------------------|
|--12----12S==15---15S==|==16----16S==15---15S====12--|
|-----------------------|-----------------------------|
|-----------------------|-----------------------------|

  +W                      +H          H.
|-----------------------|-----------------------------|
|-----------------------|-----------------------------|
|-(18)------------------|-(18)------------------------|
|-----------------------|-----------------------------|
|-----------------------|-----------------------------|
|-----------------------|-----------------------------|


    Q=200
   6/4
    Gtrs I, II
     PM--------|   PM------------|
     E     E E E E E E E   E     E Q
||------------------------------------|
||o-----------------------------------|
||------------------------------------|
||------------------------------------|
||o--0-----0-0-0---0-0-0---0-----0----|
||---0-----0-0-0---0-0-0---0-----0----|

   Gtr III
    W                    +H
||------------------------------------|
||o-----------------------------------|
||--18pb20r==============(18)---------|
||------------------------------------|
||o-----------------------------------|
||------------------------------------|

    W                     H
||------------------------------------|
||o-----------------------------------|
||------------------------18pb20r=====|
||------------------------------------|
||o-----------------------------------|
||------------------------------------|


 4/4                  5/4
    PM-----|   PM------------|  ~~    ~~~
    E  E E E E E E E   E E E E  Q  E  Q.      4x
|--------------------|------------------------||
|--------------------|-----------------------o||
|--------------------|------------------------||
|--------------------|------------------------||
|---0--0-0-0---0-0-0-|-0-0-0-0-/5--0-/7------o||
|---0--0-0-0---0-0-0-|-0-0-0-0-/5--0-/7-------||

    W                  W                 Q    4x
|--------------------|------------------------||
|--------------------|-----------------------o||
|--------------------|------------------------||
|--------------------|------------------------||
|--------------------|-----------------------o||
|--------------------|------------------------||

 Gtr IV
  +W                  W                 Q    4x
|--------------------|------------------------||
|--------------------|-----------------------o||
|-(18)---------------|------------------------||
|--------------------|------------------------||
|--------------------|-----------------------o||
|--------------------|------------------------||

            
            
Suggest correction
Creating personal tab
Creating personal tab
You can edit any tab online and save it as your Personal.

You can edit, replace or remove any tab part or add personal notes – all changes will be seen only by you.

Personal tabs can be accessed anytime from any device, even offline.
Learn more »
Give kudos to tab author, rate the tab!
1 2 3 4 5
comments
print report bad tab
1 comment total.
0 reply
MetalVamptress 351 Mar 16, 2016 11:57 AM

Most of this tab is wrong. There's one part that seems somewhat accurate but no, this is just lazy. They didn't take the time or put in the effort.

guest
You may want to rate the tab now too:
select rating
Wanna post a correction for this tab? Suggest correction