Oops, an error
Loading. Please wait.

Foot To The Throat tab

version 2
version 2

Whole song

Interactive

4,525 views 1 this week
no commentswrite comment
1 2 3 4 5
x 10
add to favorites
×
Save as Personal and add changes to this tab that will be seen only by you. Learn more ›
×
You can save this tab as Personal to edit and correct it or add notes. All changes will be seen only by you. Learn more »
launch autoscroll
font size
0
reset
how to read this tab
guitar tuner
backing track
0:00
0:00
edit
Autoscroll
slow
fast
+/-
esc
set tempo
stop
===============================================================================
                             Lamb Of God - Foot To The Throat
===============================================================================

Artist: Lamb Of God
Album: Sacrament, 2006
Song Title: "Foot To The Throat"
Tuning: Drop D (low to high) D-A-D-G-B-e
Tabbed By: Jerbaul

Here you go, I tried my best to organize it, hopefully you understand it.
There may be a few mistakes but I am pretty sure you know what to do.
Everything is in order, just keep scrolling down. Enjoy! :)

=====================================================================
>>Intro (2x)
e|------------------------------------------------------------------|
B|------------------------------------------------------------------|
G|------------------------------------------------------------------|
D|--7\-----------------------------10\------------------------------|
A|--5\-------------------------5-4--8\--------------6-------3-------|
D|-----000-000-000-000-000-000---------000-000-000--6--000--3--000--|
       ... ... ... ... ... ... . .     ... ... ...     ...     ...

e|---------------------------------------------------------------------------|
B|---------------------------------------------------------------------------|
G|---------------------------------------------------------------------------|
D|---7\----------------------------------------------------------------------|
A|---5\--------------------------------9-------8-----------------------------|
D|------000-000-000-000-000-000--12-11---11-10---9-6-7-6-9h10p9-7-9-7/4-6-3--|
        ... ... ... ... ... ...   .  . .  .  . . . . . .                . .

=======================================
>>Fill-In
e|------------------------------------|
B|------------------------------------|
G|------------------------------------|
D|-------------------------------8\5--|
A|--2-2-2-2-2-2-2--2/3--3-3-3-3--6\3--|
D|--2-2-2-2-2-2-2--2/3--3-3-3-3-------|
    . . . . . . .       . . . .

=========================================================================================
>>Verse (2x)
e|--------------------------------------------------------------------------------------|
B|--------------------------------------------------------------------------------------|
G|--------------------------------------------------------------------------------------|
D|--7\-----------------------5-4-10\---------------------------7\-----------------------|
A|--5\--0-0-0-0-0-0-0-0-0-0--5-4--8\--0-0-0-0--6--0-0--3--0-0--5\--0-0-0-0-0-0-0-0-0-0--|
D|------0-0-0-0-0-0-0-0-0-0-----------0-0-0-0--6--0-0--3--0-0------0-0-0-0-0-0-0-0-0-0--|
        . . . . . . . . . .           . . . .     . .     . .      . . . . . . . . . .

>>(1st Ending)
e|----------------------------------------------|
B|----------------------------------------------|
G|----------------------------------------------|
D|----------------------------------------------|
A|--------9-------8-----------------------------|
D|--12-11---11-10---9-6-7-6-9h10p9-7-9-7/4-6-3--|

>>(2nd Ending)
e|-----------------------------------------------|
B|-----------------------------------------------|
G|-----------------------------------------------|
D|------------------------------------------8----|
A|--------9-------8--------------------10-9-6-5--|
D|--12-11---11-10---9-6-7-6-9h10p9-7-9-10-9---0--|

================================================================================
>>Chorus (2x)
e|-----------------------------------------------------------------------------|
B|-----------------------------------------------------------------------------|
G|-----------------------------------------------------------------------------|
D|--------4h5p4----------------------12----------------------------------------|
A|----3-5-------6--5-5-5-5--5/8/11-8-----5-5-5--4-5-7h8p7-8--5-5-5--5-8-7-4-6--|
D|--0--------------0-0-0-0---------------0-0-0---------------0-0-0--5-8-7-4-6--|
                     . . .                 . .                 . .

e|----------------------------------------------------------------------------------------|
B|----------------------------------------------------------------------------------------|
G|----------------------------------------------------------------------------------------|
D|-------------4h5p4----------------------12----------------------------------------------|
A|--5-5-5--3-5-------6--5-5-5-5--5/8/11-8-----4(/8)--10-12-12h13h12-9\--3-3--5-7-7h8p7-4--|
D|--0-0-0---------------0-0-0-0---------------4(/8)---------------------3-3---------------|
      . .                 . . .                       .  .                   . .

======================================================================
>>Bridge (x3)
e|-------------------------------------------------------------------|
B|-------------------------------------------------------------------|
G|-------------------------------------------------------------------|
D|-------------------------------------------------------------------|
A|--8-8-------------7-7-------------4-4-------------5-5-----3-3------|
D|------0-0-0-0-0-0-----0-0-0-0-0-0-----0-0-0-0-0-0-----0-0-----0-0--|
 |      . . . . . .     . . . . . .     . . . . . .     . .     . .  |
 |                                                                   |
 |(3rd Time w/ Brigde)                                               |
e|-------------------------------------------------------------------|
B|--10-10-----------8-8-------------5-5-------------6-6--------------|
G|--10-10-----------9-9-------------6-6-------------7-7--------------|
D|-------------------------------------------------------------------|
A|-------------------------------------------------------------------|
D|-------------------------------------------------------------------|

=========================================
>>Bridge Fill-In
e|--------------------------------------|
B|--------------------------------------|
G|--------------------------------------|
D|-----------------------------------0--|
A|--8-8-------------7-7--------7-3-6-0--|
D|------0-0-0-0-0-0-----0-0-0--7-3-6-0--|
 |      . . . . . .     . . .    . .    |
 |                                      |
e|--------------------------------------|
B|--10-10-----------8-8-----------------|
G|--10-10-----------9-9-----------------|
D|--------------------------------------|
A|--------------------------------------|
D|--------------------------------------|

================================================================================
>>Chorus
e|-----------------------------------------------------------------------------|
B|-----------------------------------------------------------------------------|
G|-----------------------------------------------------------------------------|
D|--------4h5p4----------------------12----------------------------------------|
A|----3-5-------6--5-5-5-5--5/8/11-8-----5-5-5--4-5-7h8p7-8--5-5-5--5-8-7-4-6--|
D|--0--------------0-0-0-0---------------0-0-0---------------0-0-0--5-8-7-4-6--|
                     . . .                 . .                 . .

e|----------------------------------------------------------------------------------------|
B|----------------------------------------------------------------------------------------|
G|----------------------------------------------------------------------------------------|
D|-------------4h5p4----------------------12----------------------------------------------|
A|--5-5-5--3-5-------6--5-5-5-5--5/8/11-8-----4(/8)--10-12-12h13h12-9\--3-3--5-7-7h8p7-4--|
D|--0-0-0---------------0-0-0-0---------------4(/8)---------------------3-3---------------|
      . .                 . . .                       .  .                   . .

================================================================================
>>Chorus Cont.
e|-----------------------------------------------------------------------------|
B|-----------------------------------------------------------------------------|
G|-----------------------------------------------------------------------------|
D|--------4h5p4----------------------12----------------------------------------|
A|----3-5-------6--5-5-5-5--5/8/11-8-----5-5-5--4-5-7h8p7-8--5-5-5--5-8-7-4-6--|
D|--0--------------0-0-0-0---------------0-0-0---------------0-0-0--5-8-7-4-6--|
                     . . .                 . .                 . .

e|----------------------------------------------------------------------|
B|----------------------------------------------------------------------|
G|----------------------------------------------------------------------|
D|-------------4h5p4----------------------12----------------------------|
A|--5-5-5--3-5-------6--5-5-5-5--5/8/11-8-----4(/8)--10-12-12h13h12-9\--|
D|--0-0-0---------------0-0-0-0---------------4(/8)---------------------|
      . .                 . . .                       .  .

e|--------------------------------------------------------------|
B|--------------------------------------------------------------|
G|--------------------------------------------------------------|
D|---------------------------------------------12------------0--|
A|--3-3--4-5-7h8p7--8-8--10-12-12h13h12-10--10----10-11\3-2--0--|
D|--3-3-------------8-8---------------------10----10-11\3-2--0--|
         . .              .  .                          . .

==================
>> Interlude (12x)
e|---------------|
B|---------------|
G|---------------|
D|----6-6h7p6----|
A|--8---------8--|
D|---------------|
    . .       .

===============================================================
>>Interlude Cont. (2x)
e|------------------------------------------------------------|
B|------------------------------------------------------------|
G|------------------------------------------------------------|
D|------6-6h7p6--------6-6h7p6--------6-6h7p6-----------------|
A|----8---------8----8---------8----8---------8---------------|
D|------------------------------------------------------------|
 |    . .       .    . .       .    . .       .               |
 |                                                            |
e|------------------------------------------------------------|
B|------------------------------------------------------------|
G|------------------------------------------------------------|
D|-------------------------------------------------3-2-----3--|
A|--0--------------0--------------0--------------1-----4-5----|
D|--0--------------0--------------0---------------------------|
    .              .              .

===============================================================
>>Interlude Cont.
e|------------------------------------------------------------|
B|------------------------------------------------------------|
G|------------------------------------------------------------|
D|------6-6h7p6--------6-6h7p6--------6-6h7p6-----------------|
A|----8---------8----8---------8----8---------8---------------|
D|------------------------------------------------------------|
 |    . .       .    . .       .    . .       .               |
 |                                                            |
e|------------------------------------------------------------|
B|------------------------------------------------------------|
G|------------------------------------------------------------|
D|--0--------------0-------------------------------3-2-----3--|
A|--0--------------0--------------0--------------1-----4-5----|
D|--0--------------0--------------0---------------------------|
                                  .

============================================================
>>Interlude Cont.
e|---------------------------------------------------------|
B|---------------------------------------------------------|
G|---------------------------------------------------------|
D|------6-6h7p6--------6-6h7p6-----------------------------|
A|----8---------8----8---------8---------------------------|
D|---------------------------------------------------------|
 |    . .       .    . .       .                           |
 |                                                         |
e|---------------------------------------------------------|
B|---------------------------------------------------------|
G|---------------------------------------------------------|
D|---------------------------------------------------------|
A|--0--------------0---------------------------------------|
D|--0--------------0--------------3-2-4-3-2-3-7-6-4-7-6-3--|
    .              .

=====================================================
>>Bridge (2x)
e|--------------------------------------------------|
B|--------------------------------------------------|
G|--------------------------------------------------|
D|---------------------------------------3-2-----3--|
A|-------------------------------------1-----4-5----|
D|--0--0-0-0-0-0-0-0--000--0-0-0-0-0-0--------------|
       . . . . . . .  ...  . . . . . .

==========================================================================
>>Bridge Cont.
e|-----------------------------------------------------------------------|
B|-----------------------------------------------------------------------|
G|-----------------------------------------------------------------------|
D|------6-6h7p6--------6-6h7p6--------6-6h7p6----------------------------|
A|----8---------8----8---------8----8---------8--------------------------|
D|-----------------------------------------------------------------------|
 |    . .       .    . .       .    . .       .                          |
 |                                                                       |
e|-----------------------------------------------------------------------|
B|-----------------------------------------------------------------------|
G|-----------------------------------------------------------------------|
D|-------------------------------------------------3-2-----3-------------|
A|--0--------------0--------------0--------------1-----4-5----0----X\\\--|
D|--0--------------0--------------0---------------------------0----X\\\--|
    .              .              .                           .

==============================
>>Bridge Fill-In
e|---------------------------|
B|---------------------------|
G|---------------------------|
D|---------------------------|
A|---------------------------|
D|--3-2-4-3-2-3-7-6-4-7-6-3--|

====================================================
>>Riff C (2x) (wah pedal)
>>(listen to the song, it will help)

|+ Sharpen Wah
|- Broaden Wah

>>(start from broadest wah then sharpen gradually)
>>  + + + + + + + +  +++  + + + + + + + + + + + +
e|-------------------------------------------------|
B|-------------------------------------------------|
G|-------------------------------------------------|
D|--------------------------------------3-2-----3--|
A|------------------------------------1-----4-5----|
D|--0-0-0-0-0-0-0-0--000--0-0-0-0-0-0--------------|
    . . . . . . . .  ...  . . . . . .

>>  +  + + + + + + +  +++  + + + + + + + + + + + +
e|--------------------------------------------------|
B|--------------------------------------------------|
G|--------------------------------------------------|
D|---------------------------------------3-2-----3--|
A|-------------------------------------1-----4-5----|
D|--0--0-0-0-0-0-0-0--000--0-0-0-0-0-0--------------|
       . . . . . . .  ...  . . . . . .

>>  +  + + + + + + +  +++  + + + + + + + + + + + +
e|--------------------------------------------------|
B|--------------------------------------------------|
G|--------------------------------------------------|
D|---------------------------------------3-2-----3--|
A|-------------------------------------1-----4-5----|
D|--0--0-0-0-0-0-0-0--000--0-0-0-0-0-0--------------|
       . . . . . . .  ...  . . . . . .

>>([+]sharpest point of wah, now begin to broaden wah)
>>  +  + + + + + + +  +++  + + +  + +[+]- - - - - - - - -
e|---------------------------------------------------------|
B|---------------------------------------------------------|
G|---------------------------------------------------------|
D|---------------------------------------------------------|
A|---------------------------------------------------------|
D|--0--0-0-0-0-0-0-0--000--0-0-0--3-2-4-3-2-3-7-6-4-7-6-3--|
       . . . . . . .  ...  . . .

=================================================================
>>Outro
e|--------------------------------------------------------------|
B|--------------------------------------------------------------|
G|--------------------------------------------------------------|
D|--------------------------------------------------------------|
A|--5~-------------8~-------------7~-------------4~-------------|
D|--------------------------------------------------------------|
 |                                                              |
e|--------------------------------------------------------------|
B|--------------------------------------------------------------|
G|--------------------------------------------------------------|
D|------6-6h7p6-------------------------------------------------|
A|----8---------8-------------------4-7-7h8p7-8----1-4-4h5p4-5--|
D|--0--------------0-3-6-6h7p6-3--0--------------0--------------|
    . . .          . . .          . . .          . . .

e|--------------------------------------------------------------|
B|--------------------------------------------------------------|
G|-----------------------------------------------6~-------------|
D|--------------------------------------------------------------|
A|--5~-------------8~-------------7~----------------------------|
D|--------------------------------------------------------------|
 |                                                              |
e|--------------------------------------------------------------|
B|--------------------------------------------------------------|
G|--------------------------------------------------------------|
D|------6-6h7p6-------------------------------------------------|
A|----8---------8-------------------4-7-7h8p7-8----1-4-4h5p4-5--|
D|--0--------------0-3-6-6h7p6-3--0--------------0--------------|
    . . .          . . .          . . .          . . .

e|--------------------------------------------------------------|
B|-----------------------------------------------14~------------|
G|--7~-------------10~-----------9~-----------------------------|
D|--------------------------------------------------------------|
A|--------------------------------------------------------------|
D|--------------------------------------------------------------|
 |                                                              |
e|--------------------------------------------------------------|
B|--------------------------------------------------------------|
G|--------------------------------------------------------------|
D|------6-6h7p6-------------------------------------------------|
A|----8---------8-------------------4-7-7h8p7-8----1-4-4h5p4-5--|
D|--0--------------0-3-6-6h7p6-3--0--------------0--------------|
    . . .          . . .          . . .          . . .

e|--------------------------------------------------------------|
B|--15b--(hold-bend)-------------------------------(hold bend)--|
G|--------------------------------------------------------------|
D|--------------------------------------------------------------|
A|--------------------------------------------------------------|
D|--------------------------------------------------------------|
 |                                                              |
e|--------------------------------------------------------------|
B|--------------------------------------------------------------|
G|--------------------------------------------------------------|
D|------6-6h7p6-------------------------------------------------|
A|----8---------8-------------------4-7-7h8p7-8----1-4-4h5p4-5--|
D|--0--------------0-3-6-6h7p6-3--0--------------0--------------|
    . . .          . . .          . . .          . . .

e|------------------------|
B|--15~-------------------|
G|------------------------|
D|------------------------|
A|------------------------|
D|------------------------|
 |                        |
e|------------------------|
B|------------------------|
G|------------------------|
D|--0----------(0)--X\\\--|
A|--0----------(0)--X\\\--|
D|--0----------(0)--------|

========================================
>>Outro Cont.
e|-------------------------------------|
B|-------------------------------------|
G|-------------------------------------|
D|--7\-------------------------7-6--0--|
A|--5\-------------------------5-4--0--|
D|-----000-000-000-000-000-000------0--|
       ... ... ... ... ... ... . .

========================================
| /  slide up
| \  slide down
| h  hammer-on
| p  pull-off
| ~  vibrato
| .  palm mute
========================================

            
            
Suggest correction
Creating personal tab
Creating personal tab
You can edit any tab online and save it as your Personal.

You can edit, replace or remove any tab part or add personal notes – all changes will be seen only by you.

Personal tabs can be accessed anytime from any device, even offline.
Learn more »
comments
print report bad tab
guest
You may want to rate the tab now too:
select rating
Wanna post a correction for this tab? Suggest correction