Oops, an error
Loading. Please wait.

Forgotten Lost Angels tab

version 2
version 2

Whole song

Interactive

786 views 1 this week
no commentswrite comment
1 2 3 4 5
1 last vote to show rating
add to favorites
×
Save as Personal and add changes to this tab that will be seen only by you. Learn more ›
×
You can save this tab as Personal to edit and correct it or add notes. All changes will be seen only by you. Learn more »
launch autoscroll
font size
0
reset
how to read this tab
guitar tuner
backing track
0:00
0:00
edit
Autoscroll
slow
fast
+/-
esc
set tempo
stop
Author
                              FORGOTTEN(LOST ANGELS)
                           SACRAMENT
                          LAMB OF GOD


DROP D TUNNING
(low to high)
 D-A-D-G-B-E

INTRO
FAST=218
0:00
E--------|---------||------------------------------------------------|
G--------|---------||.-----------------------------------------------|
B--------|---------||------------------------------------------------|
D--------|---------||.-----------------------------------------------|
A-DRUM---|-PICK----||---13-------13-12----12\8----8\7---7-7\6--------|
D--------|-SCRAPING||-0----16-12-------15------11-----7---7\6--------|

E-----------------------|-------------------------------|
G-----------------------|-------------------------------|
B-----------------------|-------------------------------|
D-----------------------|-------------------------------|
A---13-------13-12----12|-------------------------------|
D-0----16-12-------15---|-6/7\6-3-6-6/7\6-7-2-----------|

E----------------------------------------|
G----------------------------------------|
B----------------------------------------|
D----------------------------------------|
A---13-------13-12----12\8----8\7---7-7\6|
D-0----16-12-------15------11-----7---7\6|

E-----------------------|--------------------------------||
G-----------------------|-------------------------------.||
B-----------------------|--------------------------------||
D-----------------------|-------------------------------.||
A---13-------13-12----12|-------------------------12-11--||
D-0----16-12-------15---|-15h16p15-12-14-14h15p14-12-11--||

E------------------|------------------|
G------------------|------------------|
B------------------|------------------|
D-12-------------12|-12-------------12|
A-12-0-0-0-0-0-0-12|-12-0-0-0-0-0-0-12|
D-12-0-0-0-0-0-0-12|-12-0-0-0-0-0-0-12|

E------------------|--------------------|------------------|
G------------------|--------------------|------------------|
B------------------|--------------------|------------------|
D-12-------------12|-12-----11-11-----15|-15-------------15|
A-12-0-0-0-0-0-0-12|-12-0-0-11-11-0-0-15|-15-0-0-0-0-0-0-15|
D-12-0-0-0-0-0-0-12|-12-0-0-11-11-0-0-15|-15-0-0-0-0-0-0-15|

E------------------|------------------|--------------------|
G------------------|------------------|--------------------|
B------------------|------------------|--------------------|
D-15-------------14|-14-------------15|-15-----18-18-----12|
A-15-0-0-0-0-0-0-14|-14-0-0-0-0-0-0-15|-15-0-0-18-18-0-0-12|
D-15-0-0-0-0-0-0-14|-14-0-0-0-0-0-0-15|-15-0-0-18-18-0-0-12|

E------------------|------------------|------------------|
G------------------|------------------|------------------|
B------------------|------------------|------------------|
D-12-------------12|-12-------------12|-12-------------12|
A-12-0-0-0-0-0-0-12|-12-0-0-0-0-0-0-12|-12-0-0-0-0-0-0-12|
D-12-0-0-0-0-0-0-12|-12-0-0-0-0-0-0-12|-12-0-0-0-0-0-0-12|

E--------------------|------------------|------------------|
G--------------------|------------------|------------------|
B--------------------|------------------|------------------|
D-12-----11-11-----15|-15-------------15|-15-------------14|
A-12-0-0-11-11-0-0-15|-15-0-0-0-0-0-0-15|-15-0-0-0-0-0-0-14|
D-12-0-0-11-11-0-0-15|-15-0-0-0-0-0-0-15|-15-0-0-0-0-0-0-14|

E-----------------|-------------------|------------------------------------|
G-----------------|-------------------|------------------------------------|
B-----------------|-------------------|------------------------------------|
D14-------------15|15-----18-18-----13|------------------------------------|
A14-0-0-0-0-0-0-15|15-0-0-18-18-----13|---13-------13-12----12\8---8\7---7-|
D14-0-0-0-0-0-0-15|15-0-0-18-18-0-0-13|-0----16-12-------15------11----7---|

E-----|-----------------------|--------------------|
G-----|-----------------------|--------------------|
B-----|-----------------------|--------------------|
D-----|-----------------------|--------------------|
A-7\6-|---13-------13-12----12|--------------------|
D-7\6-|-0----16-12-------15---|-6/7\6-3-6-6/7\6-7-2|


E------------------|--------------------|
G------------------|--------------------|
B------------------|--------------------|
D------------------|-0------------------|
A---------------4--|-0-------6--12--0--4|
D-6/7\6-3-6-7-3---7|-0-------6--12--0--4|

E------------------|---------------------||--------------|------------------|
B------------------|---------------------||--------------|------------------|
B------------------|---------------------||--------------|------------------|
D-14-------------15|-15-----18-18-18-18--||--------------|------------------|
A-14-0-0-0-0-0-0-15|-15-0-0-18-18-18-18--||-----2-1---1--|-2-1---1---2-1----|
D-14-0-0-0-0-0-0-15|-15-0-0-18-18-18-18-2||-3-2-----2---2|-----2---2-----3--|

E----------------|----------------|--------------|----------------|
G----------------|----------------|--------------|----------------|
B----------------|----------------|--------------|----------------|
D----------------|----------------|--------------|----------------|
A-------2-1---1--|-3-2---2---4-3--|-----2-1---1--|-2-1---1---2-1--|
D-2-3-2-----2---2|-----3---3-----2|-3-2-----2---2|-----2---2-----3|

E----------------|------------||-----------------------------------------|
G----------------|------------||-----------------------------------------|
B----------------|------------||-----------------------------------------|
D----------------|------------||-----------------------------------------|
A-------2-1---1--|-6-5-4-3-2-1||---13-------13-12----12\8----8\7---7-7\6-|
D-2-3-2-----2---2|-6-5-4-3-2-1||-0----15-12-------15------11-----7---7\6-|

E-----------------------|-------------------------------||
G-----------------------|-------------------------------||
B-----------------------|-------------------------------||
D-----------------------|-------------------------------||
A---13-------13-12----12|----------------5\4------------||
D-0----15-12-------15---|-7h8p-5-7-7h8p7-5\4------------||

E-------------------|----------------|--------------------------|
G-------------------|----------------|--------------------------|
B-------------------|----------------|--------------------------|
D-----------8------7|---------6-5---4|-----------8------7-------|
A---10-9-10---10\9--|---8-6----------|---10-9-10---10\9---------|
D-5-----------------|-5-----5-----6--|-5------------------------|

E----------------|-------------------|----------------|---------------------|
G----------------|-------------------|----------------|---------------------|
B----------------|-------------------|----------------|---------------------|
D-----------4-3-1|-----------8------7|---------6-5----|-----------8------7--|
A---8-6---1------|---10-9-10---10\9--|---8-6---------4|---10-9-10---10\9----|
D-5-----5-1------|-5-----------------|-5-----5-----6--|-5-------------------|

E--------------------||
G--------------------||
B--------------------||
D--------------------||
A-----------------5\4||
D-7h8p7-5-7-7h8p7-5\4||

E-------------------|----------------|--------------------------|
G-------------------|----------------|--------------------------|
B-------------------|----------------|--------------------------|
D-----------8------7|---------6-5---4|-----------8------7-------|
A---10-9-10---10\9--|---8-6----------|---10-9-10---10\9---------|
D-5-----------------|-5-----5-----6--|-5------------------------|

E----------------|-------------------|----------------|---------------------|
G----------------|-------------------|----------------|---------------------|
B----------------|-------------------|----------------|---------------------|
D-----------4-3-1|-----------8------7|---------6-5----|-----------8------7--|
A---8-6---1------|---10-9-10---10\9--|---8-6---------4|---10-9-10---10\9----|
D-5-----5-1------|-5-----------------|-5-----5-----6--|-5-------------------|

E----------------|----------------|-----------------|
G----------------|----------------|-----------------|
B-----------2-1--|-1b--------1----|------------1----|
D-0-------------3|-------------2-3|-0--------------3|
A-0-0-0-0-0------|----0-0-0-------|-0-0-0-0-0----5--|
D-0-0-0-0-0------|----0-0-0-------|-0-0-0-0-0-------|

E----------------|----------------|---------------|
G----------------|----------------|---------------|
B-----------1----|-----------2-1--|-1b-------1----|
D-0-------------3|-1-------------3|------------2-3|
A-0-0-0-0-0---4--|-1-1-1-1-1------|---1-1-1-------|
D-0-0-0-0-0------|-1-1-1-1-1------|---1-1-1-------|

E----------------|----------------|----------------|
G----------------|----------------|----------------|
B-----------1----|-----------1----|-----------2-1--|
D-1-------------3|-3-------------3|-0-------------3|
A-1-1-1-1-1---5--|-3-3-3-3-3---4--|-0-0-0-0-0------|
D-1-1-1-1-1------|-3-3-3-3-3------|-0-0-0-0-0------|

E---------------|----------------|----------------|
G---------------|----------------|----------------|
B-1b-------1----|-----------1----|-----------2-1--|
D------------2-3|-0-------------3|-0-------------3|
A----0-0-0------|-0-0-0-0-0---5--|-0-0-0-0-0------|
D----0-0-0------|-0-0-0-0-0------|-0-0-0-0-0------|

E----------------|---------------|----------------|
G----------------|---------------|----------------|
B-----------2-1--|-1b-------1----|-----------1----|
D-1-------------3|------------2-3|-3-------------3|
A-1-1-1-1-1------|----1-1-1------|-3-3-3-3-3---5--|
D-1-1-1-1-1------|----1-1-1------|-3-3-3-3-3------|

E----------------|--------------------------|
G----------------|--------------------------|
B-----------1----|-9----------------------9b|
D-2-------------3|--------------------------|
A-2-2-2-2-2---4--|--------------------------|
D-2-2-2-2-2------|--------------------------|

E-----------------------|---------------------|----------|
G-----------------------|---------------------|----------|
B-9--------9-9h10p9----9|---------------------|----------|
D----11-12----------12--|12-11-12-11-8-11-8---|----------|
A-----------------------|-------------------9/|10-10b-10b|
D-----------------------|---------------------|----------|

E--------|-------------------------|------------------------------|
G--------|-------------------------|-14h11h10-11h\8-10-8-7--------|
B--------|-------------------------|-----------------------8p7----|
D--------|-------------------------|---------------------------10/|
A-9-10-12|-12/13-12-10-12-10\9-10-9|------------------------------|
D-----------------------------------------------------------------|

            
            
Suggest correction
Creating personal tab
Creating personal tab
You can edit any tab online and save it as your Personal.

You can edit, replace or remove any tab part or add personal notes – all changes will be seen only by you.

Personal tabs can be accessed anytime from any device, even offline.
Learn more »
Give kudos to tab author, rate the tab!
1 2 3 4 5
comments
print report bad tab
guest
You may want to rate the tab now too:
select rating
Wanna post a correction for this tab? Suggest correction