Oops, an error
Loading. Please wait.
We have an official Hourglass tab made by UG professional guitarists. Check out the tab »
×
10,248 views 21 this week
12 commentsread comments
1 2 3 4 5
x 24
add to favorites
×
Save as Personal and add changes to this tab that will be seen only by you. Learn more ›
×
You can save this tab as Personal to edit and correct it or add notes. All changes will be seen only by you. Learn more »
launch autoscroll
font size
0
reset
how to read this tab
guitar tuner
backing track
0:00
0:00
edit
Autoscroll
slow
fast
+/-
esc
set tempo
stop
Author
Pretty sure that most of the song is right. I have the Killadalphia movie of
Lamb Of God and in the extras Willie Adler plays some of Hourglass. I slowed
it down on my TV and looked at what notes he was playing. Hope you like it!!!
(I only tabbed one guitar through the whole song)

Hourglass by Lamb Of God
Tabbed by thedude22
Tuning - DADGBE
Song Time - 4:00

0:00-0:23                                           ___
E ---------------------------------------------|       |
B ---------------------------------------------|       |
G ---------------------------------------------|       |
D ---------------------------------------------|       |
A --------------7-8-------8-10-------3-7-6-2---|       |
D -0-0-0--0-0-0-----0-0-0------0-0-0-----------|       |
                                                       |
E ------------------------------------------------|    |
B -----------------------------------------10-9---|    |
G ------------------------------------10-9--------|    |
D ------------------------------------------------|    |
A --------------7-8-------8-12--------------------|    |
D -0-0-0--0-0-0-----0-0-0------0-0-0--------------|    |
                                                       |  Play all of this 
E ---------------------------------------------|       |        2x
B ---------------------------------------------|       |
G ---------------------------------------------|       |
D ---------------------------------------------|       |
A --------------7-8-------8-10-------3-7-6-2---|       |
D -0-0-0--0-0-0-----0-0-0------0-0-0-----------|       |
                                                       |
E --------------------------------------------------|  |
B --------------------------------------------------|  |
G --------------------------------------------------|  |
D ----------------------------------------5---------|  |
A --------------6-5-------5-4-----------------------|  |
D -0-0-0--0-0-0-----0-0-0-----0-0-0--0--0---0--0--0-|  |
                                            ^  ^  ^ ___|
0:23-0:43                          Play second time only 
E -----------------------------------------|
B -----------------------------------------|
G -----------------------------------------|
D ----------------------5----------8-7-6---|
A ---------6-5-----------------------------|
D -0--0--0-----0--0--0----0--0--0----------|

E -------------------------------------------------------------------------|
B -------------------------------------------------------------------------|
G -------------------------------------------------------------------------|
D -------------------------------------------------------------------------|
A ---------6-5-----5-4-----------------------6-5---------------------------|
D -0--0--0-----0--0----0--0--0--0--0--0--0--0----0--0--0--4--0--0--0--8-5-4|


E -------------------------------------------------------------------------|
B -------------------------------------------------------------------------|
G -------------------------------------------------------------------------|
D --------------------------------------------------------4-----------8-5-4|
A ---------6-5-----5-4-----------------------6-5---------------------------|
D -0--0--0-----0--0----0--0--0--0--0--0--0--0----0--0--0-----0--0--0-------|

E -------------------------------------------------------------------------|
B -------------------------------------------------------------------------|
G -------------------------------------------------------------------------|
D -------------------------------------------------------------------------|
A ---------6-5-----5-4-----------------------6-5---------------------------|
D -0--0--0-----0--0----0--0--0--0--0--0--0--0----0--0--0--4--0--0--0--8-5-4|

0:43-1:03
E ------------------------------------------------------|
B ------------------------------------------------------|
G ------------------------------------------------------|
D ------------------------------------------------------|
A -------------------13-10-12------13-10-12-----15-13---|
D -0--0--0--0--0-0-0---------0-0-0---------0--0---------|

E -----------------------------------------|
B -----------------------------------------|
G -----------------------------------------|
D -----------------------------------------|
A -------13-10-12---------12-10-8----------|
D -0-0-0----------0-0-0-8---------9--5-4---|

E -------------------------------------------|
B -------------------------------------------|
G -------------------------------------------|
D -------------------------------------------|
A -------13-10-12-------13-10-12------15-13--|
D -0-0-0---------0-0-0----------0--0---------|

E -------------------------------------------|
B -------------------------------------------|
G -------------------------------------------|
D -------------------------------------------|
A -------13-10-12----------13-12-10-7--5-4---|
D -0-0-0----------0-0-0-13-------------------|

E -------------------------------------------|
B -------------------------------------------|
G -------------------------------------------|
D -------------------------------------------|
A -------13-10-12-------13-10-12------15-13--|
D -0-0-0---------0-0-0----------0--0---------|

E -----------------------------------------|
B -----------------------------------------|
G -----------------------------------------|
D -----------------------------------------|
A -------13-10-12---------12-10-8----------|
D -0-0-0----------0-0-0-8---------9--5-4---|

E -------------------------------------------|
B -------------------------------------------|
G -------------------------------------------|
D -------------------------------------------|
A -------13-10-12-------13-10-12------15-13--|
D -0-0-0---------0-0-0----------0--0---------|

E -------------------------------------------|
B -------------------------------------------|
G -------------------------------------------|
D -------------------------------------------|
A -------13-10-12----------13-12-10-7--5-4---|
D -0-0-0----------0-0-0-13-------------------|

1:03-1:24
E ------------------------------------------------------------------|
B ------------------------------------------------------------------|
G ------------------------------------------------------------------|
D -------8--5-7---8--5-7--------------------8--5-7--10-10--8-8--7---|
A -------6--3-5---6--3-5--------------------6--3-5--8--8---6-6--5---|
D -0--0---------0---------0--0--0--0--0--0--------------------------|

E ----------------------------------------------------------|
B ----------------------------------------------------------|
G ----------------------------------------------------------|
D -8--5-7---8--5-7--------------------8--5-7--3-3--1-1--0---|
A -6--3-5---6--3-5--------------------6--3-5--3-3--1-1--0---|
D --------0---------0--0--0--0--0--0----------3-3--1-1--0---|

E ------------------------------------------------------------------|
B ------------------------------------------------------------------|
G ------------------------------------------------------------------|
D -8--5-7---8--5-7--------------------8--5-7--10-10--8-8--7---|
A -6--3-5---6--3-5--------------------6--3-5--8--8---6-6--5---|
D --------0---------0--0--0--0--0--0--------------------------|

E ----------------------------------------------------------|
B ----------------------------------------------------------|
G ----------------------------------------------------------|
D -8--5-7---8--5-7--------------------8--5-7--3-3--1-1--0---|
A -6--3-5---6--3-5--------------------6--3-5--3-3--1-1--0---|
D --------0---------0--0--0--0--0--0----------3-3--1-1--0---|

1:24-2:07                                       ____
E --------------------------------------------|     |
B --------------------------------------------|     |
G --------------------------------------------|     |
D -----7--------------------7-----------------|     |
A -5-6------------------5-6-------------------|     |
D -------0--0--0--0--0--------0--0--0--0--0---|     |
                                                    |  Play 2x
E --------------------------------------------|     |
B --------------------------------------------|     |
G --------------------------------------------|     |
D --------------------------------------------|     |
A -5-6-4----------------5-6-3-----------------|     |
D -------0--0--0--0--0--------0--0--0--0--0---|     |
                                                ____|
E ---------------|
B ---------------|
G ---------------|
D ---------------|
A ---------------|
D -6-5-4-5-4-3---|
                                                ____
E --------------------------------------------|     |
B --------------------------------------------|     |
G --------------------------------------------|     |
D -----7--------------------7-----------------|     |
A -5-6------------------5-6-------------------|     |
D -------0--0--0--0--0--------0--0--0--0--0---|     |
                                                    |  Play 4x
E --------------------------------------------|     |
B --------------------------------------------|     |
G --------------------------------------------|     |
D --------------------------------------------|     |
A -5-6-4----------------5-6-3-----------------|     |
D -------0--0--0--0--0--------0--0--0--0--0---|     |
                                                ____|
E ---------------|
B ---------------|
G ---------------|
D ---------------|
A ---------------|
D -6-5-4-5-4-3---|

                                                ____
E --------------------------------------------|     |
B --------------------------------------------|     |
G --------------------------------------------|     |
D -----7--------------------7-----------------|     |
A -5-6------------------5-6-------------------|     |
D -------0--0--0--0--0--------0--0--0--0--0---|     |
                                                    |  Play 2x
E --------------------------------------------|     |
B --------------------------------------------|     |
G --------------------------------------------|     |
D --------------------------------------------|     |
A -5-6-4----------------5-6-3-----------------|     |
D -------0--0--0--0--0--------0--0--0--0--0---|     |
                                                ____|
2:07-2:32
E ---------------------------|
B ---------------------------|
G ---------------------------|
D ---------------------------|
A -------------6-5-4-8-7-6---|
D -6-5-4-5-4-3---------------|
                                           ____
E ---------------------------------------|     |
B ---------------------------------------|     |
G ---------------------------------------|     |
D ----------------------------11---------|     |
A ----------13----------12-13----13-12---|     |
D -12-13-12----13-12-0-------------------|     |
                                               |
E ---------------------------------|           |
B ---------------------------------|           |
G ---------------------------------|           |
D ---------------------------------|           |
A ----------13----------13-12-11---|           |
D -12-13-12----13-12-0-------------|           |
                                               |  Play 4x
E ---------------------------------------|     |    
B ---------------------------------------|     |
G ---------------------------------------|     |
D ----------------------------11---------|     |
A ----------13----------12-13----13-12---|     |
D -12-13-12----13-12-0-------------------|     |
                                               |
E ----------------------------------|          |
B ----------------------------------|          |
G ----------------------------------|          |
D ----------------------------------|          |
A ----------13----------------------|          |
D -12-13-12----13-12-5-9-5-8-7-3----|          |
                                           ____|                      
2:32-2:57                                                              ___ 
E -----------------------------------------------------------------------||
B -----------------------------------------------------------------------||
G -----------------------------------------------------------------------||x
D -0--------------1--------------3---------------------3-2-1-------------||4
A -0--------------1--------------3---------------4-5-4-------------------||
D -0--5-9-5-8-7-3-1--5-9-5-8-7-3-3--5-9-5-8-7-3--------------5-6-5-6-5-4-||
                                                                       ___|
2:57-3:10                         ___              
E ---------------------------------| |
B ---------------------------------| |
G ---------------------------------| |Play
D ---------------------------------| | 4x
A ---------------------------------| |
D -0-0-0-0-0-0-0-0-0-0-0-0-0-0-0---| |
                                  ___|
3:10-4:00
E --------|
B --------|
G --------|
D --------|
A --------|
D -11\0---|
  (Slide)
                                           ____
E ---------------------------------------|     |
B ---------------------------------------|     |
G ---------------------------------------|     |
D ----------------------------11---------|     |
A ----------13----------12-13----13-12---|     |
D -12-13-12----13-12-0-------------------|     |
                                               |
E ---------------------------------|           |
B ---------------------------------|           |
G ---------------------------------|           |
D ---------------------------------|           |
A ----------13----------13-12-11---|           |
D -12-13-12----13-12-0-------------|           |
                                               |  Play 6x
E ---------------------------------------|     |    
B ---------------------------------------|     |
G ---------------------------------------|     |
D ----------------------------11---------|     |
A ----------13----------12-13----13-12---|     |
D -12-13-12----13-12-0-------------------|     |
                                               |
E ----------------------------------|          |
B ----------------------------------|          |
G ----------------------------------|          |
D ----------------------------------|          |
A ----------13----------------------|          |
D -12-13-12----13-12-5-9-5-8-7-3----|          |
                                           ____|    

E ------------------------------|
B ------------------------------|
G ------------------------------|
D -0----------------------------|
A -0---let all the notes ring---|
D -0----------------------------|

Comments or Suggestions?  Want more songs tabbed by Lamb of God?
     IM me on AIM!!!  VoLcOmStOnEfRk777 or IMmeORelse11

            
            
Suggest correction
Creating personal tab
Creating personal tab
You can edit any tab online and save it as your Personal.

You can edit, replace or remove any tab part or add personal notes – all changes will be seen only by you.

Personal tabs can be accessed anytime from any device, even offline.
Learn more »
comments
print report bad tab
12 comments total. Showing first comments.
0 reply
c0ld_3mphasis05 30 Dec 28, 2005 04:19 AM

E
B
G
D
A 0
D 3 6 2

0 reply
c0ld_3mphasis05 30 Dec 28, 2005 04:21 AM

whoops... meh, you tabbed one thing on the wrong string.. easy mistake if you are using a video

E
B
G
D
A---0----
D-3---6---2

or

E
B
G
D
A
D-3--7--6--2

0 reply
grungehead27 10 Mar 09, 2006 11:42 AM

you got the middle part wrong dude

its
E
B
G
D---------------------------11------------------------------------
A---------12----------12-13----13-12-----------12-----------------
D-0-12-13----13-12-13------------------0-12-13----13-12-11-12-10--

E
B
G
D-------------
A-13-12-11----
D-------------

willie adler submitted it to guitar world magazine along with the harmonized part that morton plays. basically the harmony starts on the 15th fret and does the same thing as the normal one, but when it goes up to the 4th string he plays that on 15, not 14. its pretty easy.

guest
You may want to rate the tab now too:
select rating
Wanna post a correction for this tab? Suggest correction