Oops, an error
Loading. Please wait.

In Defense Of Our Good Name tab

version 2
version 2

Whole song

Interactive

6,050 views 3 this week
3 commentsread comments
1 2 3 4 5
x 8
add to favorites
×
Save as Personal and add changes to this tab that will be seen only by you. Learn more ›
×
You can save this tab as Personal to edit and correct it or add notes. All changes will be seen only by you. Learn more »
launch autoscroll
font size
0
reset
how to read this tab
guitar tuner
edit
Autoscroll
slow
fast
+/-
esc
set tempo
stop
Author
LamB Of God - In Defense Of Our Good Name

Tabbed by: guitar_guy12
Email:lundie12@hotmail.com

Tuning: D A D G B e

| /  slide up
| \  slide down
| h  hammer-on
| p  pull-off
| ~  vibrato
| +  harmonic
| x  Mute note

e|---------------------------------------------------------------|
B|---------------------------------------------------------------|
G|---------------------------------------------------------------|
D|---------------------------------------------------------------|
A|--5h8p5--------5h8p5--------5h8p5--------5h8p5-----------------|
E|---------0--0---------0--0---------0--0---------0--0-----------|
           x  x         x  x         x  x         x  x

e|---------------------------------------------------------------|
B|---------------------------------------------------------------|
G|---------------------------------------------------------------|
D|---------------------------------------------------------------|
A|--4h7p4--------4h7p4--------4h7p4--------4h7p4-----------------|
E|---------0--0---------0--0---------0--0---------0--0-----------|
           x  x         x  x         x  x         x  x

e|---------------------------------------------------------------|
B|---------------------------------------------------------------|
G|---------------------------------------------------------------|
D|---------------------------------------------------------------|
A|--5h8p5--------5h8p5--------5h8p5--------5h8p5-----------------|
E|---------0--0---------0--0---------0--0---------0--0-----------|
           x  x         x  x         x  x         x  x

e|---------------------------------------------------------------|
B|---------------------------------------------------------------|
G|---------------------------------------------------------------|
D|---------------------------------------------------------------|
A|--4h7p4--------4h7p4------------------0--1--3--4---------------|
E|---------0--0---------0-0-0-0--4--3~--0--1--3--4---------------|
	           x  x         x x x x 	       x

e|---------------------------------------------------------------|
B|---------------------------------------------------------------|
G|---------------------------------------------------------------|
D|---------------------------------------------------------------|
A|--5h8p5--------5h8p5--------5h8p5--------5h8p5-----------------|
E|---------0--0---------0--0---------0--0---------0--0-----------|
           x  x         x  x         x  x         x  x

e|---------------------------------------------------------------|
B|---------------------------------------------------------------|
G|---------------------------------------------------------------|
D|---------------------------------------------------------------|
A|--4h7p4--------4h7p4--------4h7p4--------4h7p4-----------------|
E|---------0--0---------0--0---------0--0---------0--0-----------|
           x  x         x  x         x  x         x  x

e|---------------------------------------------------------------|
B|---------------------------------------------------------------|
G|---------------------------------------------------------------|
D|---------------------------------------------------------------|
A|--5h8p5--------5h8p5--------5h8p5--------5h8p5-----------------|
E|---------0--0---------0--0---------0--0---------0--0-----------|
           x  x         x  x         x  x         x  x

e|---------------------------------------------------------------|
B|---------------------------------------------------------------|
G|---------------------------------------------------------------|
D|---------------------------------------------------------------|
A|--4h7p4--------4h7p4------------------0--1--3--4---------------|
E|---------0--0---------0-0-0-0--4--3~--0--1--3--4--5------------|
	           x  x         x x x x	        x


Not to sure about this part tho :S, it sounds kindda right

e|---------------------------------------------------------------|
B|---------------------------------------------------------------|
G|---------------------------------------------------------------|
D|---------------------------------------------------------------|
A|--------12h13p12---------12h13p12--------12h13p12--------------|
E|--0--0------------0-0-0------------0--0------------0-0-0-------|
    x  x            x x x            x  x            x x x

e|---------------------------------------------------------------|
B|---------------------------------------------------------------|
G|---------------------------------------------------------------|
D|---------------------------------------------------------------|
A|--11h12p11--------11h12p11---------11h12p11--------11h12p11----|
E|------------0--0------------0-0-0------------0--0--------------|
              x  x            x x x            x  x

e|--------------------------------------------------------------------||
B|--------------------------------------------------------------------||
G|--------------------------------------------------------------------||
D|--------------------------------------------------------------------||
A|---------12h13p12--------12h13p12---------12h13p12--------12h13p12--||
E|--0-0-0------------0--0------------0-0-0------------0--0------------||
    x x x            x  x            x x x            x  x             |--2X
	                                                               |
e|--------------------------------------------------------------------||
B|--------------------------------------------------------------------||
G|--------------------------------------------------------------------||
D|--------------------------------------------------------------------||
A|---------11h12p11--------11h12p11---------11h12p11--------11h12p11--||
E|--0-0-0------------0--0------------0-0-0------------0--0------------||
    x x x            x  x            x x x            x  x

e|--------------------------------------------------------------------|
B|--------------------------------------------------------------------|
G|--------------------------------------------------------------------|
D|--------------------------------------------------------------------|
A|---------12h13p12--------12h13p12---------12h13p12--------12h13p12--|
E|--0-0-0------------0--0------------0-0-0------------0--0------------|
    x x x            x  x            x x x            x  x

e|--------------------------------------------------------------------|
B|--------------------------------------------------------------------|
G|--------------------------------------------------------------------|
D|--------------------------------------------------------------------|
A|---------11h12p11--------11h12p11------------------0--1--3--4-------|
E|--0-0-0------------0--0------------0-0-0-0--4--3~--0--1--3--4-------|
    x x x            x  x            x x x x         x


e|----------------------------------------------------|
B|----------------------------------------------------|
G|----------------------------------------------------|
D|----------------------------------------------------|
A|-----6--5--------------------8--7--------10--9------|
E|--0--------6--0--0--0--0--0--------8--0---------10--|
    x           x  x  x  x  x           x

e|----------------------------------------------------|
B|----------------------------------------------------|
G|----------------------------------------------------|
D|---------------------------------------------8--7---|
A|-----6--5--------------------8--7--------10---------|
E|--0--------6--0--0--0--0--0--------8--0-------------|
    x           x  x  x  x  x           x

e|----------------------------------------------------|
B|----------------------------------------------------|
G|----------------------------------------------------|
D|----------------------------------------------------|
A|-----6--5--------------------8--7--------10--9------|
E|--0--------6--0--0--0--0--0--------8--0---------10--|
    x           x  x  x  x  x           x

e|----------------------------------------------------|
B|----------------------------------------------------|
G|----------------------------------------------------|
D|----------------------------------------------------|
A|-----6--5--------------------8--7-----0--1--4--3----|
E|--0--------6--0--0--0--0--0--------8--0--1--4--3----|
    x           x  x  x  x  x           x

e|----------------------------------------------------|
B|----------------------------------------------------|
G|----------------------------------------------------|
D|----------------------------------------------------|
A|-----6--5--------------------8--7--------10--9------|
E|--0--------6--0--0--0--0--0--------8--0---------10--|
    x           x  x  x  x  x           x

e|----------------------------------------------------|
B|----------------------------------------------------|
G|----------------------------------------------------|
D|---------------------------------------------8--7---|
A|-----6--5--------------------8--7--------10---------|
E|--0--------6--0--0--0--0--0--------8--0-------------|
    x           x  x  x  x  x           x

e|----------------------------------------------------|
B|----------------------------------------------------|
G|----------------------------------------------------|
D|----------------------------------------------------|
A|-----6--5--------------------8--7--------10--9------|
E|--0--------6--0--0--0--0--0--------8--0---------10--|
    x           x  x  x  x  x           x

e|------------------------------------------------|
B|------------------------------------------------|
G|------------------------------------------------|
D|------------------------------------------------|
A|-----6--5---------------------------0--1--3--4--|
E|--0--------6--0--0--0-0-0-0--4--3~--0--1--3--4--|
    x           x  x  x x x x	      x

e|------------------------------------------------------|
B|------------------------------------------------------|
G|------------------------------------------------------|
D|-----8--7--------------------10--9--------12--11------|
A|--0--6--5--6--0--0--0--0--0---8--7--8--0--10---9--10--|
E|--0--------6--0--0--0--0--0---------8--0----------10--|
    x           x  x  x  x  x            x

e|------------------------------------------------------|
B|------------------------------------------------------|
G|------------------------------------------------------|
D|-----8--7--------------------10--9--------12--8--7----|
A|--0--6--5--6--0--0--0--0--0---8--7--8--0--10----------|
E|--0--------6--0--0--0--0--0---------8--0--------------|
    x           x  x  x  x  x            x

e|------------------------------------------------------|
B|------------------------------------------------------|
G|------------------------------------------------------|
D|-----8--7--------------------10--9--------12--11------|
A|--0--6--5--6--0--0--0--0--0---8--7--8--0--10---9--10--|
E|--0--------6--0--0--0--0--0---------8--0----------10--|
    x           x  x  x  x  x            x

e|------------------------------------------------------|
B|------------------------------------------------------|
G|------------------------------------------------------|
D|-----8--7--------------------10--9--------------------|
A|--0--6--5--6--0--0--0--0--0---8--7--8--0--1--4--3-----|
E|--0--------6--0--0--0--0--0---------8--0--1--4--3-----|
    x           x  x  x  x  x            x  x  x  x

e|------------------------------------------------------|
B|------------------------------------------------------|
G|------------------------------------------------------|
D|-----8--7--------------------10--9--------12--11------|
A|--0--6--5--6--0--0--0--0--0---8--7--8--0--10---9--10--|
E|--0--------6--0--0--0--0--0---------8--0----------10--|
    x           x  x  x  x  x            x

e|------------------------------------------------------|
B|------------------------------------------------------|
G|------------------------------------------------------|
D|-----8--7--------------------10--9--------12--8--7----|
A|--0--6--5--6--0--0--0--0--0---8--7--8--0--10----------|
E|--0--------6--0--0--0--0--0---------8--0--------------|
    x           x  x  x  x  x            x

e|------------------------------------------------------|
B|------------------------------------------------------|
G|------------------------------------------------------|
D|-----8--7--------------------10--9--------12--11------|
A|--0--6--5--6--0--0--0--0--0---8--7--8--0--10---9--10--|
E|--0--------6--0--0--0--0--0---------8--0----------10--|
    x           x  x  x  x  x            x


e|------------------------------------------------------|
B|------------------------------------------------------|
G|------------------------------------------------------|
D|-----8--7---------------------------------------------|
A|--0--6--5--6--0--0------------------0--1--3--4--------|
E|--0--------6--0--0--0-0-0-0--4--3~--0--1--3--4--------|
    x           x  x  x x x x         x

e|---------------------------------------------------------------|
B|---------------------------------------------------------------|
G|---------------------------------------------------------------|
D|-------------8--8-------------7--7-----------------------------|
A|-------------6--6-------------5--5-----------------------------|
E|--0-0-0-0-0--------0-0-0-0-0--------0-0-0-0-1-1-1-1------------|--------3X
    x x x x x        x x x x x        x x x x x x x x

e|---------------------------------------------------------------|
B|---------------------------------------------------------------|
G|---------------------------------------------------------------|
D|-------------8--8----------------------------------------------|
A|-------------6--6----------------------------------------------|
E|--0-0-0-0-0--------0-0-0-0-------------------------------------|
    x x x x x        x x x x

e|---------------------------------------------------------------|
B|---------------------------------------------------------------|
G|---------------------------------------------------------------|
D|-----------8--8--------------7--7------------------------------|
A|-----------6--6--------------5--5------------------------------|
E|--0--0--0--------0--0--0--0--------0-0-0-0-1-1-1-1-------------|--------7X
    x  x  x        x  x  x  x        x x x x x x x x

e|---------------------------------------------------------------|
B|---------------------------------------------------------------|
G|---------------------------------------------------------------|
D|-----------8--8------------------------------------------------|
A|-----------6--6---------------------0--1--3--4-----------------|
E|--0--0--0--------0--0-0-0-0--4--3~--0--1--3--4-----------------|
    x  x  x        x  x x x x         x


	2X
e|--------------------------------------------------------------------------|
B|--------------------------------------------------------------------------|
G|--------------------------------------------------------------------------|
D|--------------------------------------------------------------------------|
A|--------------------------------------------------------------------------|
E|--0--0--0--0--0--0--4--4--4-/-5--5--5--0--0--0--0--0--0--4--4--4--1--1--1-|


e|---------------------------------------------------------------||
B|---------------------------------------------------------------||
G|---------------------------------------------------------------||
D|---------------------------------------------------------------||
A|--5h7p5-----5h7p5-----5h7p5--5h7p5-----5h7p5-----5h7p5---------||
E|---------0---------0----------------0---------0----------------||
	           x         x                x         x
	                                                          |
e|-------------------------------------------------------------------------||
B|-------------------------------------------------------------------------||
G|-------------------------------------------------------------------------||
D|-------------------------------------------------------------------------||
A|--4h7p4-----4h7p4-----4h7p4-----4h7p4------------------------------------||
E|---------0---------0---------0---------0-0-0--0-0-0----------------------||
           x         x         x         x x x  x x x              |-------||4X
	                                                          |
e|---------------------------------------------------------------||
B|---------------------------------------------------------------||
G|---------------------------------------------------------------||
D|---------------------------------------------------------------||
A|--1h4p1-----1h4p1-----1h4p1--1h4p1-----1h4p1-----1h4p1---------||
E|---------0---------0----------------0---------0----------------||
           x         x                x         x	          |
	                                                          |
e|---------------------------------------------------------------||
B|---------------------------------------------------------------||
G|---------------------------------------------------------------||
D|---------------------------------------------------------------||
A|--0h3p0-----0h3p0-----0h3p0-----0h3p0--------------------------||
E|---------0---------0---------0---------0-0-0--1--4--3----------||
           x         x         x         x x x  x  x  x

e|---------------------------------------------------------------|
B|---------------------------------------------------------------|
G|---------------3------------------2----------------------------|
D|------------0------------------0---------------4---------------|
A|---------------------------------------------------------------|
E|--0-0-0--1--------0-0-0--1--0--------0-0-0--1------------------|
    x x x  x  x     x x x  x  x  x     x x x  x

e|---------------------------------------------------------------|
B|---------------------------------------------------------------|
G|------------------3------------------2-------------------------|
D|---------------0------------------0----------------------------|
A|--------------------------------------------------4------------|
E|--0-0-0--1--0--------0-0-0--1--0--------0-0-0--1---------------|--------2X
    x x x  x  x  x     x x x  x  x  x     x x x  x

e|---------------------------------------------------------------|
B|---------------------------------------------------------------|
G|------------------3------------------2-------------------------|
D|---------------0------------------0----------------------------|
A|--------------------------------------------------4------------|
E|--0-0-0--1--0--------0-0-0--1--0--------0-0-0--1--4------------|
    x x x  x  x  x     x x x  x  x  x     x x x  x

e|---------------------------------------------------------------|
B|---------------------------------------------------------------|
G|---------------------------------------------------------------|
D|---------------------------------------------------------------|
A|--1--0--1--0--0--0--0--0--0-1--1--1--1/3--3--3--3/4--4--4------|
E|--1--0--1--0--0--0--0--0--0h1--1--1--1/3--3--3--3/4--4--4------|
                x  x  x  x       x  x       x  x       x  x

e|---------------------------------------------------------------|
B|---------------------------------------------------------------|
G|---------------------------------------------------------------|
D|---------------------------------------------------------------|
A|--0--0--0--0--0-1--1--1--1/3--3--3--3/4--4--4------------------|
E|--0--0--0--0--0h1--1--1--1/3--3--3--3/4--4--4------------------|
    x  x  x  x       x  x       x  x       x  x

e|----------------------------------------------------------------|
B|----------------------------------------------------------------|
G|----------------------------------------------------------------|
D|----------------------------------------------------------------|
A|----------------------------------------------------------------|
E|--0-0-0-0-0-0-0h1-1-1-1-1-1-1--1/3-3-3-3-3-3-3-3/4-4-4-4-4-4-4--|
    x x x x x x     x x x x x x      x x x x x x     x x x x x x

e|---------------------------------------------------------------|
B|---------------------------------------------------------------|
G|---------------------------------------------------------------|
D|---------------------------------------------------------------|
A|----------------------------------------------4----------------|
E|--0-0-0-0-0-0-0h1-1-1-1-1-1-1-1/3-3-3-3-3-3-3-4----------------|
    x x x x x x     x x x x x x     x x x x x x

e|-----------------------------------------------------------------|
B|-----------------------------------------------------------------|
G|-----------------------------------------------------------------|
D|-----------------------------------------------------------------|
A|--1--0--1--0--0--1--0--0--1--0--1--0--0--0--0--0--0--0--0--0--0--|
E|--1--0--1--0--0--1--0--0--1--0--1--0--0--0--0--0--0--0--0--0--0--|
	                x     x  x     x     x  x  x  x  x  x  x  x  x  x

e|--------------------------------------------------------------------|
B|--------------------------------------------------------------------|
G|--------------------------------------------------------------------|
D|--------------------------------------------------------------------|
A|--1--0--0--1--0--1--0--6--5--------5--4-----0--0--1--0--0--1--0--1--|
E|--1--0--0--1--0--1--0--------3--5--------3--0--0--1--0--0--1--0--1--|
       x  x     x     x                       x  x     x  x     x

e|--------------------------------------------------------------------------|
B|--------------------------------------------------------------------------|
G|--------------------------------------------------------------------------|
D|--------------------------------------------------------------------------|
A|--0--0--0--0--0--0--0--0--0--0--1--0--0--1--0--1--0-----------------------|
E|--0--0--0--0--0--0--0--0--0--0--1--0--0--1--0--1--0--4--4--4--0--1--1--1--|
    x  x  x  x  x  x  x  x  x  x     x  x     x     x

e|---------------------------------------------------------------|
B|---------------------------------------------------------------|
G|---------------------------------------------------------------|
D|---------------------------------------------------------------|
A|--0--0--1--0--0--1--0--1--0--0--0--0--0--0--0--0--0--0---------|
E|--0--0--1--0--0--1--0--1--0--0--0--0--0--0--0--0--0--0---------|
    x  x     x  x     x     x  x  x  x  x  x  x  x  x  x

e|--------------------------------------------------------------------|
B|--------------------------------------------------------------------|
G|--------------------------------------------------------------------|
D|--------------------------------------------------------------------|
A|--1--0--0--1--0--1--0--6--5--------5--4-----0--0--1--0--0--1--0--1--|
E|--1--0--0--1--0--1--0--------3--5--------3--0--0--1--0--0--1--0--1--|
       x  x     x     x                       x  x     x  x     x

e|--------------------------------------------------------------------------||
B|--------------------------------------------------------------------------||
G|--------------------------------------------------------------------------||
D|--------------------------------------------------------------------------||
A|--0--0--0--0--0--0--0--0--0--0--1--0--0--1--0--1--0-----------------------||
E|--0--0--0--0--0--0--0--0--0--0--1--0--0--1--0--1--0--4--4--4--0--1--1--1--||
    x  x  x  x  x  x  x  x  x  x     x  x     x     x

e|------------------------------------------------------------------|
B|------------------------------------------------------------------|
G|------------------------------------------------------------------|
D|------------------------------------------------------------------|
A|---------------------------5h7p5---------------------------5h7p5--|
E|--0-0-0-0-0-0-0-0-0-0-0-0---------0-0-0-0-0-0-0-0-0-0-0-0---------|
    x x x x x x x x x x x x         x x x x x x x x x x x x

e|------------------------------------------------------------------|
B|------------------------------------------------------------------|
G|------------------------------------------------------------------|
D|------------------------------------------------------------------|
A|---------------------------4h7p4---------------------------4h7p4--|
E|--0-0-0-0-0-0-0-0-0-0-0-0---------0-0-0-0-0-0-0-0-0-0-0-0---------|
    x x x x x x x x x x x x         x x x x x x x x x x x x

e|------------------------------------------------------------------|
B|------------------------------------------------------------------|
G|------------------------------------------------------------------|
D|------------------------------------------------------------------|
A|---------------------------1h4p1---------------------------1h4p1--|
E|--0-0-0-0-0-0-0-0-0-0-0-0---------0-0-0-0-0-0-0-0-0-0-0-0---------|
    x x x x x x x x x x x x         x x x x x x x x x x x x

e|------------------------------------------------------------------|
B|------------------------------------------------------------------|
G|------------------------------------------------------------------|
D|------------------------------------------------------------------|
A|---------------------------0h3p0------------------0--1--3--4------|
E|--0-0-0-0-0-0-0-0-0-0-0-0---------0-0-0-0--4--3~--0--1--3--4------|
    x x x x x x x x x x x x         x x x x         x

e|---------------------------------------------------------------|
B|---------------------------------------------------------------|
G|---------------------------------------------------------------|
D|---------------------------------------------------------------|
A|--5h8p5--------5h8p5--------5h8p5--------5h8p5-----------------|
E|---------0--0---------0--0---------0--0---------0--0-----------|
           x  x         x  x         x  x         x  x

e|---------------------------------------------------------------|
B|---------------------------------------------------------------|
G|---------------------------------------------------------------|
D|---------------------------------------------------------------|
A|--4h7p4--------4h7p4--------4h7p4--------4h7p4-----------------|
E|---------0--0---------0--0---------0--0---------0--0-----------|
           x  x         x  x         x  x         x  x

e|---------------------------------------------------------------|
B|---------------------------------------------------------------|
G|---------------------------------------------------------------|
D|---------------------------------------------------------------|
A|--7h10p7--------7h10p7--------7h10p7--------7h10p7-------------|
E|----------0--0----------0--0----------0--0----------0--0-------|
            x  x          x  x          x  x          x  x

e|---------------------------------------------------------------|
B|---------------------------------------------------------------|
G|---------------------------------------------------------------|
D|---------------------------------------------------------------|
A|--12h15p12--------12h15p12------------------0--1--3--4---------|
E|------------0--0------------0-0-0-0--4--3~--0--1--3--4---------|
              x  x            x x x x         x


I hope there is no probem with this tab, ENJOY guitar players!

            
            
Suggest correction
Creating personal tab
Creating personal tab
You can edit any tab online and save it as your Personal.

You can edit, replace or remove any tab part or add personal notes – all changes will be seen only by you.

Personal tabs can be accessed anytime from any device, even offline.
Learn more »
comments
print report bad tab
3 comments total.
+1 reply
theFallofLirby 480 Sep 10, 2011 11:56 AM

12h13p12 part should be

9h13p9, 8h12p8

0 reply
riffmerchant 81 Dec 23, 2014 11:08 PM

e|---------------------------------------------------------------|
B|---------------------------------------------------------------|
G|---------------------------------------------------------------|
D|-------------8--8-------------7--7-----------------------------|
A|-------------6--6-------------5--5-----------------------------|
E|--0-0-0-0-0--------0-0-0-0-0--------0-0-0-0-1-1-1-1------------|

This should go like this according to my ears (and I slowed it down in Reaper to analyse, although the 7th fret lick could also be 6530 instead of 7530, they both sound similar to me, but I do think it starts on the 7th):

e|---------------------------------------------------------------------|
B|---------------------------------------------------------------------|
G|---------------------------------------------------------------------|
D|-------------0--0-----------------0--0-------------------------------|
A|-------------6--6-----------------5--5-------------------------------|
E|--0-0-0-0-0--------0---0-0-0-0-0--------0---7-5-3-0---1-1-1-1-1------|
* * * * * * * * * * * * * * * * * * * * *

0 reply
riffmerchant 81 Dec 23, 2014 11:11 PM, edited on December 24 2014, 04:14 am

Mark/Willy then changes after 2x of the above to:e|---------------------------------------------------------------------|B|---------------------------------------------------------------------|G|---------------------------------------------------------------------|D|-------------0--0-----------------0--0-------------------------------|A|-------------9--9-----------------8--8-------------------------------|E|--0-0-0-0-0--------0---0-0-0-0-0--------0---7-5-3-0---1-1-1-1-1------| * * * * * * * * * * * * * * * * * * * * *

e|---------------------------------------------------------------------|
B|---------------------------------------------------------------------|
G|---------------------------------------------------------------------|
D|-------------4--4-----------------3--3-------------------------------|
A|-------------5--5-----------------5--5-------------------------------|
E|--0-0-0-0-0--------0---0-0-0-0-0--------0---7-5-3-0---1-1-1-1-1------|
* * * * * * * * * * * * * * * * * * * * *

guest
You may want to rate the tab now too:
select rating
Wanna post a correction for this tab? Suggest correction