Oops, an error
Loading. Please wait.

In The Absence Of The Sacred bass

version 1
version 1

Whole song

Interactive

748 views 3 this week
1 commentread comment
1 2 3 4 5
1 last vote to show rating
add to favorites
×
Save as Personal and add changes to this tab that will be seen only by you. Learn more ›
×
You can save this tab as Personal to edit and correct it or add notes. All changes will be seen only by you. Learn more »
launch autoscroll
font size
0
reset
guitar tuner
edit
Autoscroll
slow
fast
+/-
esc
set tempo
stop
Lamb Of God - In Absence of the Sacred
From the album New American Gospel

~ = let note ring

Intro/Verse
G----------------------------------------|
D----------------------------------------|
A----------------------------------------|
D-3-2-0-5-6-0-3-2-0-5-6-0-3-2-5-6--------|


G-----------------------|
D-----------------------|
A-----------------------|
D-32-56-32-56-3256------|


G----------------------------------------------|
D----------------------------------------------|
A----------------------------------------------|
D--1111111-1111111-0000000--0000---0~~---234---|

G----------------------------------|
D----------------------------------|
A----------------------------------|
D--0---43-0---43-0---53039432------|

G----------------------------------------------------|
D----------------------------------------------------|
A----------------------------------------------------|
D--0~---2222333300002222-2---12/---6666333355552222--|

G---------------------|
D---------------------|
A-4444-4444------4444-|
D-----------00000-----|

G--------------------------------------------------------|
D--------------------------------------------------------|
A--------------------------------------------------------|
D--0000--0000340000--000--0000-000-34--032034932-034-----|
Ending
G--------------|
D--------------|
A--------------|
D-2-1-2-1-2-1--|

Listen to the song for the timing

            
            
Suggest correction
Creating personal tab
Creating personal tab
You can edit any tab online and save it as your Personal.

You can edit, replace or remove any tab part or add personal notes – all changes will be seen only by you.

Personal tabs can be accessed anytime from any device, even offline.
Learn more »
Give kudos to tab author, rate the tab!
1 2 3 4 5
comments
print report bad tab
1 comment total.
0 reply
Suckthebeef 123 Jun 25, 2008 01:45 AM

It would have been helpful to put up repeats and so-on, but I think you forgot a riff which starts at around 1:28 and goes on to 1:39. Also in the riff with the tremelo picking I think that it's a slide from -0--/10- at the beginning rather than just an open.

guest
You may want to rate the tab now too:
select rating
Wanna post a correction for this tab? Suggest correction