Oops, an error
Loading. Please wait.

More Time To Kill bass

version 1
version 1

Whole song

Interactive

1,154 views 3 this week
1 commentread comment
1 2 3 4 5
2 more votes to show rating
add to favorites
×
Save as Personal and add changes to this tab that will be seen only by you. Learn more ›
×
You can save this tab as Personal to edit and correct it or add notes. All changes will be seen only by you. Learn more »
launch autoscroll
font size
0
reset
guitar tuner
backing track
0:00
0:00
edit
Autoscroll
slow
fast
+/-
esc
set tempo
stop
--------------------------------------------------------------------------------------------------
MORE TIME TO KILL - Lamb Of God
--------------------------------------------------------------------------------------------------

Tabbed by: van_halen_fan

Tuning: Drop D (from low to high: D,A,D,G)

This tab is based off of the bass master track, which can be found here:
http://www.youtube.com/watch?v=QDI3ZQV8DNM

Intro

G|-------------------------------|--------------------------------|
D|-------------------------------|--------------------------------|
A|-------------------------------|--------------------------------|
D|-0-1-0-8--8-0-1-0-8--8-0-1-0-8-|-0-1-0-8--8-0-1-0-8--8-0-1-0-8--|

G|-------------------------------|--------------------------------|
D|-------------------------------|--------------------------------|
A|-------------------------------|--------------------------------|
D|-0-1-0-6--6-0-1-0-6--6-0-1-0-6-|-0-1-0-6--6-0-0-1-0-3-0-3-4-3-1-|

G|-------------------------------|--------------------------------|
D|-------------------------------|--------------------------------|
A|-------------------------------|--------------------------------|
D|-0-1-0-8--8-0-1-0-8--8-0-1-0-8-|-0-1-0-8--8-0-1-0-8--8-0-1-0-8--|

G|-------------------------------|--------------------r---r---r---|
D|-------------------------------|--------------------e---e---e---|
A|-------------------------------|--------------------s---s---s---|
D|-0-1-0-6--6-0-1-0-6--6-0-1-0-6-|-0-1-0-6--6-0-1-0---t---t---t---|

Verse

G||----------------------------------|----------------------------------||
D||*---------------------------------|---------------------------------*||
A||*---------------------------------|---------------------------------*||
D||--0-3-0-5-6-0-2-3-0-5-6-0-0-3-2-1-|-0-3-0-5-6-0-2-3-0-5-6-0-0-3-2-1--||

G||-------------------------------|--------------------------|
D||*------------------------------|--------------------------|
A||*------------------------------|--------------------------|
D||--0-1-0-6--6-0-3-0-1-0-6-7-0-3-|-4--4-0-3-0-1-0-4-3-0-0-1-|

G|------------------------------|------------------------|
D|------------------------------|------------------------|
A|------------------------------|------------------------|
D|-0-1-0-6--6-0-3-0-1-0-6-7-0-3-|-4--4-0-3-0-1-0-4-3-0-0-|

G|----------------------------------------|--------------------------------|
D|----------------------------------------|--------------------------------|
A|----------------------------------------|--------------------------------|
D|-6--6-00000-0-0-0-0-0-0-0-0-0-0-0-0-1-0-|-4--4-00000-0-0-0-0-0-0-0-0-0-0-|

G|--------------------------------|-----------------------------------||
D|--------------------------------|----------------------------------*||
A|--------------------------------|----------------------------------*|| *The 1 is played on
D|-6--6-00000-0-0-0-0-0-0-0-0-1-0-|-4--4-00000-0-0-0-0-0-0-3-2-0-0-1--||  the first time only

Chorus

G|-------------------------------------------------|
D|-------------------------------------------------|
A|-------------------------------------------------|
D|-6^6^6-6^6^6-6^6^6-6^6^6-6^6^6-6^6^6-6^6^6-6^6^6-|

G|-------------------------------------------------|
D|-------------------------------------------------|
A|-------------------------------------------------|
D|-1^1^1-1^1^1-4^4^4-4^4^4-4^4^4-4^4^4-1^1^1-1^1^1-|

G|-------------------------------------|-------------------------------------|
D|-------------------------------------|-------------------------------------|
A|-------------------------------------|-------------------------------------|
D|-0-3-0-5-6-0-2-3-0-5-6-0-0^3^3-2^2^1-|-0-3-0-5-6-0-2-3-0-5-6-0-0^3^3-2^2^1-|

G|-------------------------------------------------|
D|-------------------------------------------------|
A|-------------------------------------------------|
D|-6^6^6-6^6^6-6^6^6-6^6^6-6^6^6-6^6^6-6^6^6-6^6^6-|

G|-------------------------------------------------|
D|-------------------------------------------------|
A|-------------------------------------------------|
D|-1^1^1-1^1^1-4^4^4-4^4^4-4^4^4-4^4^4-1^1^1-1^1^1-|

G||----------------------------------|----------------------------------||
D||*---------------------------------|---------------------------------*||
A||*---------------------------------|---------------------------------*||
D||--0-3-0-5-6-0-2-3-0-5-6-0-0-3-2-1-|-0-3-0-5-6-0-2-3-0-5-6-0-0-3-2-1--||

Bridge
                                   3x 
G||---------------------------------||-------------------r-|
D||*-------------------------------*||-------------------e-|
A||*-------------------------------*||-------------------s-|
D||--000-0-000-0-000-0-000-0-00000--||-000-0-000-0-00000-t-|

                                                   5x    
G||------------------------|------------------------||
D||*-----------------------|-----------------------*||
A||*-----------------------|-----------------------*||
D||--0---0---0---0---00000-|-0---0---0---0---00000--||

  *played with distortion
G|--------------|---------------------|------------------|-----------------------r-|
D|--------------|---------------------|------------------|-----------------------e-|
A|-1------------|-1-------------------|-1----------------|-1---------------------s-|
D|--0----0-0----|---0--0-0-0^0^0-0-0--|--0----0-0-00-00--|--0----0-0^0^0-0^0^0-0-t-|

  *distortion off
G|----------------------------------|-----------------------------------|
D|----------------------------------|-----------------------------------|
A|----------5-----3-----1-----------|----------5-----3-----1------------|
D|-00000000---6-0---4-0---3-2/6-1/5-|-00000000---6-0---4-0---3-2/6-1----|

G|----------------------------------|-----------------------------------|
D|----------------------------------|-----------------------------------|
A|----------5-----3-----1-----------|----------5-----3------------------|
D|-00000000---6-0---4-0---3-2/6-1/5-|-00000000---6-0---4-0-000-00001006-|

G|----------------------------------|-----------------------------------|
D|----------------------------------|-----------------------------------|
A|----------5-----3-----1-----------|----------5-----3-----1------------|
D|-00000000---6-0---4-0---3-2/6-1/5-|-00000000---6-0---4-0---3-2/6-1----|

G|----------------------------------|------------------------------------|----r----|
D|----------------------------------|------------------------------------|----e----|
A|----------5-----3-----1-----------|----------5-----3-------------------|----s----|
D|-00000000---6-0---4-0---3-2/6-1/5-|-00000000---6-0---4-0-000-000010060-|----t----|

G||----------------------------------|----------------------------------||
D||*---------------------------------|---------------------------------*||
A||*---------------------------------|---------------------------------*||
D||--0-3-0-5-6-0-2-3-0-5-6-0-0-3-2-1-|-0-3-0-5-6-0-2-3-0-5-6-0-0-3-2-1--||

Ending

G||----------------------------------|---------------------------------|
D||*---------------------------------|---------------------------------|
A||*---------------------------------|---------------------------------|
D||--3-3-3-3-3-3-3-3-3-3-3-3-5-5-5-5-|-2-2-2-2-2-2-2-2-2-2-2-2-3-3-3-3-|

                                                                     3x
G|---------------------------------|----------------------------------||
D|---------------------------------|---------------------------------*||
A|-1-------------------------------|-1-------------------------------*||
D|---0-0-0-0-0-0-0-0-0-0-0-0-0-0-0-|---0-0-0-0-0-0-0-0-0-0-0-2-2-2-2--||

G|---------------------------------|-----------------------------------|
D|---------------------------------|-----------------------------------|
A|---------------------------------|-----------------------------------|
D|-3-3-3-3-3-3-3-3-3-3-3-3-5-5-5-5-|-2-2-2-2-2-2-2-2-2-2-2-2-3~--------|

G|-------------------------------|-------------------||
D|-------------------------------|-------------------||
A|-------------------------------|-------------------||
D|-000-0-000-0-000-0-000-0-00000-|-000-0-000-0-00000-||

Enjoy!!!

| /  slide up
| \  slide down
| h  hammer-on
| p  pull-off
| ~  vibrato
| +  harmonic
| x  Mute note
=================================================================================================

            
            
Suggest correction
Creating personal tab
Creating personal tab
You can edit any tab online and save it as your Personal.

You can edit, replace or remove any tab part or add personal notes – all changes will be seen only by you.

Personal tabs can be accessed anytime from any device, even offline.
Learn more »
Give kudos to tab author, rate the tab!
1 2 3 4 5
comments
print report bad tab
1 comment total.
0 reply
Bassguy4827 10 Apr 20, 2011 02:51 PM

nice tab thanks for putting this up

guest
You may want to rate the tab now too:
select rating
Wanna post a correction for this tab? Suggest correction