Oops, an error
Loading. Please wait.
We have an official One Gun tab made by UG professional guitarists. Check out the tab »
×
22,778 views 6 this week
14 commentsread comments
1 2 3 4 5
x 17
add to favorites
×
Save as Personal and add changes to this tab that will be seen only by you. Learn more ›
×
You can save this tab as Personal to edit and correct it or add notes. All changes will be seen only by you. Learn more »
launch autoscroll
font size
0
reset
how to read this tab
guitar tuner
edit
Autoscroll
slow
fast
+/-
esc
set tempo
stop
Lamb Of God- (Best Metal Band ever!)
One Gun
Ashes of the Wake
Tabber-KramerGuitars1

Tuning- Drop D

Key

h-hammer on
p-pull of
/-slide 
\-Pinch Hamonics (SQUEELS!)
*-Palm Mute
b-Bend
br-bend and release 
+-Pause
---------------------



 Guitar 2 (0:00-0:29)
|-------------------------------|--------------------------------|
|-------------------------------|--------------------------------|
|-------------------------------|--------------------------------|
|-------------------------------|--------------------------------|
|-----5-----6-----5-----6-----5-|--------------------------------|
|-0-3---0-3---0-3---0-3---0-3---|-0-3-5-0-5-6-5--3br-1-0-1-4-1-0-|
  * *   * *   * *   * *   * *     * * * * * * *  \   * * * * * * 

|-------------------------------|---------------------------------|
|-------------------------------|---------------------------------|
|-------------------------------|---------------------------------|
|-------------------------------|---------------------------------|x3
|-----5-----6-----5-----6-----5-|---5-----------------------6-6-6-|
|-0-3---0-3---0-3---0-3---0-3---|-3---6-3-5-1-0-1/3h4p3-1p0-6-6-6-|
  * *   * *   * *   * *   * *     *   * * * * * * 

The last time you repeat the Intro, just Ring out A|-6-| once, instead of
                                                  D|-6-| strumming it 3
                                                             times.
 (0:29-0;48)
|------------------------------------|---------------------------------|
|------------------------------------|---------------------------------|
|------------------------------------|---------------------------------|
|---------------------------------x3-|---------------------------------|
|------------------------------------|-------------------------------6-|
|-0-0-0-0-0-0-0-0-0-0-3-0-1-4-1-0----|-3-3-3-3-3-3-2-2-2-2-2h3p2-1p0-6-|
  * * * * * * * * * *                  * * * * * * * * * *       

|------------------------------------|---------------------------------|
|------------------------------------|---------------------------------|
|------------------------------------|---------------------------------|
|---------------------------------x3-|---------------------------------|
|------------------------------------|-------------------------------6-|
|-0-0-0-0-0-0-0-0-0-0-3-0-1-4-1-0----|-3-3-3-3-3-3-2-2-2-2-2h3p2-1p0-6-|
  * * * * * * * * * *                  * * * * * * * * * * 
 
 (0:49-1:08)
|---------------------------------|----------------------------------|
|---------------------------------|----------------------------------|
|---------------------------------|----------------------------------|
|---------------------------------|----------------------------------|  
|-----------------------------3h6-|-------1--------------------------|
|-0-3-0-7--0-3-0-3h4p3-1-0--0-----|-0-3-0----0-3-0--5-8-7-3-6-5--1p0-| 
  * * *    * * *            *       * * *    * * *  * * * * * * 

|---------------------------------|-----------------------------------|
|---------------------------------|-----------------------------------|
|---------------------------------|-----------------------------------|
|---------------------------------|-----------------------------------|  
|-----------------------------3h6-|-------1---------------------------|
|-0-3-0-7--0-3-0-3h4p3-1-0--0-----|-0-3-0----0-3-0--3-3-3-3-1-1-1-1-0-|
  * * *    * * *            *       * * *    * * *  * * * * * * * * *


|---------------------------------|----------------------------------|
|---------------------------------|----------------------------------|
|---------------------------------|----------------------------------|
|---------------------------------|----------------------------------|  
|-----------------------------3h6-|-------1--------------------------|
|-0-3-0-7--0-3-0-3h4p3-1-0--0-----|-0-3-0----0-3-0--5-8-7-3-6-5--1p0-| 
  * * *    * * *            *       * * *    * * *  * * * * * * 

|---------------------------------|-----------------------------------|
|---------------------------------|-----------------------------------|
|---------------------------------|-----------------------------------|
|---------------------------------|-----------------------------------|  
|-----------------------------3h6-|-------1---------------------------|
|-0-3-0-7--0-3-0-3h4p3-1-0--0-----|-0-3-0----0-3-0--3-3-3-3-1-1-1-1-0-|
  * * *    * * *            *       * * *    * * *  * * * * * * * * *

 (1:08-1:27)
|-------------------------------|--------------------------------|
|-------------------------------|--------------------------------|
|-------------------------------|--------------------------------|
|-------------------------------|--------------------------------|
|-----5-----6-----5-----6-----5-|--------------------------------|
|-0-3---0-3---0-3---0-3---0-3---|-0-3-5-0-5-6-5--3br-1-0-1-4-1-0-|
  * *   * *   * *   * *   * *     * * * * * * *  \   * * * * * *

|-------------------------------|---------------------------------|
|-------------------------------|---------------------------------|
|-------------------------------|---------------------------------|
|-------------------------------|---------------------------------|x2
|-----5-----6-----5-----6-----5-|---5-----------------------6-6-6-|
|-0-3---0-3---0-3---0-3---0-3---|-3---6-3-5-1-0-1/3h4p3-1p0-6-6-6-|
  * *   * *   * *   * *   * *     *   * * * * * * 

Same thing like the last time ring out A|-6-| the last time you repeat.
                                       D|-6-|
 (1:27-1:47)
|------------------------------------|---------------------------------|
|------------------------------------|---------------------------------|
|------------------------------------|---------------------------------|
|---------------------------------x3-|---------------------------------|
|------------------------------------|-------------------------------6-|
|-0-0-0-0-0-0-0-0-0-0-3-0-1-4-1-0----|-3-3-3-3-3-3-2-2-2-2-2h3p2-1p0-6-|
  * * * * * * * * * *                  * * * * * * * * * *       

|------------------------------------|---------------------------------|
|------------------------------------|---------------------------------|
|------------------------------------|---------------------------------|
|---------------------------------x3-|---------------------------------|
|------------------------------------|-------------------------------6-|
|-0-0-0-0-0-0-0-0-0-0-3-0-1-4-1-0----|-3-3-3-3-3-3-2-2-2-2-2h3p2-1p0-6-|
  * * * * * * * * * *                  * * * * * * * * * *
 
 (1:47-2:07)
|---------------------------------|----------------------------------|
|---------------------------------|----------------------------------|
|---------------------------------|----------------------------------|
|---------------------------------|----------------------------------|  
|-----------------------------3h6-|-------1--------------------------|
|-0-3-0-7--0-3-0-3h4p3-1-0--0-----|-0-3-0----0-3-0--5-8-7-3-6-5--1p0-| 
  * * *    * * *            *       * * *    * * *  * * * * * * 

|---------------------------------|-----------------------------------|
|---------------------------------|-----------------------------------|
|---------------------------------|-----------------------------------|
|---------------------------------|-----------------------------------|x2
|-----------------------------3h6-|-------1---------------------------|
|-0-3-0-7--0-3-0-3h4p3-1-0--0-----|-0-3-0----0-3-0--3-3-3-3-1-1-1-1-0-|
  * * *    * * *            *       * * *    * * *  * * * * * * * * * 


Riff before solo  (2:07-2:31)            
|----------------------------------------|
|----------------------------------------|
|----------------------------------------|
|----------------------------------------| x2
|---------3h4p3---------3h4p3-1-0-1-6----|
|-0-0-0-0-3h4p3-0-0-0-0-3h4p3-1-0-1-6----|

|-------------------------------------|
|-------------------------------------|
|-------------------------------------|
|-2-2-2-2-1h2p1-2-2-2-2-1h2p1-2-1-2-8-| x4<--Yea I Know that parts wrong,sry
|-2-2-2-2-------2-2-2-2-------2-1-2-8-|
|-------------------------------------|

|----------------------------------------|
|----------------------------------------|
|----------------------------------------|
|----------------------------------------| x4
|---------3h4p3---------3h4p3-1-0-1-6----|
|-0-0-0-0-3h4p3-0-0-0-0-3h4p3-1-0-1-6----|   

Ok this riff is so hard to pick up, but i know that some parts of it are correct
so dont go so hard on me.
 
 (2:31-2:41)
|-----------------------------|-----------------------------|
|-----------------------------|-----------------------------|
|-----------------------------|-----------------------------|
|-----------------------------|-----------------------------|
|-3h2---2---------------------|-3h2---2---------------------|
|-----0---4-1-0-1-3-1-4-1-0-1-|-----0---4-1-0-1-3-1-4-1-0-1-|
      *   * * * * * * *   * *       *   * * * * * * *   * *


|-------------------------------------------------------------------|
|-------------------------------------------------------------------|
|-------------------------------------------------------------------|
|-------------------------------------------------------------------|
|-5h4---4---------5h4-4-----------7h6---6---------9h8-8-------------|
|-----0---5-2-1-2-------5-2-1-2-7-----0---7-8-5-7-------12/11/10/11-|


 (2:42-2:51)
|------------------------------------|---------------------------------|
|------------------------------------|---------------------------------|
|------------------------------------|---------------------------------|
|---------------------------------x3-|---------------------------------|
|------------------------------------|-------------------------------6-|
|-0-0-0-0-0-0-0-0-0-0-3-0-1-4-1-0----|-3-3-3-3-3-3-2-2-2-2-2h3p2-1p0-6-|
  * * * * * * * * * *                  * * * * * * * * * *
 
 (2:51-3:01)
|-------------------------------|-----------------------------------|
|-------------------------------|-----------------------------------|
|-------------------------------|-----------------------------------|
|---------------------------x3--|--------------------------------x1-|
|-------------------------------|------------------------------6----|
|-00-00-00-00-00-3-0-1-4-1p0----|--33-33-33-33-22-22-2h3p2-1p0-6----|

 (3:01-3:20)
|-------------------------------|--------------------------------|
|-------------------------------|--------------------------------|
|-------------------------------|--------------------------------|
|-------------------------------|--------------------------------|
|-----5-----6-----5-----6-----5-|--------------------------------|
|-0-3---0-3---0-3---0-3---0-3---|-0-3-5-0-5-6-5--3br-1-0-1-4-1-0-|
  * *   * *   * *   * *   * *     * * * * * * *  \   * * * * * * 

|-------------------------------|---------------------------------|
|-------------------------------|---------------------------------|
|-------------------------------|---------------------------------|
|-------------------------------|---------------------------------|x2
|-----5-----6-----5-----6-----5-|---5-----------------------6-6-6-|
|-0-3---0-3---0-3---0-3---0-3---|-3---6-3-5-1-0-1/3h4p3-1p0-6-6-6-|
  * *   * *   * *   * *   * *     *   * * * * * * 
Same thing like the last time ring out A|-6-| the last time you repeat.
                                       D|-6-|
 (3:20-3:59)
|-------------------------|
|-------------------------|
|-------------------------|
|-------------------------| Play until the end of the song,i really dont
|-------------------------| feel like counting how many times it repeats,
|-00-00-00-00-+-00-00-00--| just figure it out yourself.


Well thats it, Enjoy.

Alright I did this ALL from my ear, so dont be gay and copy what i tabbed out
onto mxtabs or someother tab website.

            
            
Suggest correction
Creating personal tab
Creating personal tab
You can edit any tab online and save it as your Personal.

You can edit, replace or remove any tab part or add personal notes – all changes will be seen only by you.

Personal tabs can be accessed anytime from any device, even offline.
Learn more »
comments
print report bad tab
14 comments total. Showing first comments.
-2 reply
Trivium09 10 Jun 02, 2006 04:33 PM

i dont what kinda shit ur smokin but it must be some good stuff if u think this is right

+1 reply
feesk8ordie 1,082 Jul 28, 2006 01:15 PM

^^ if it's so wrong why does it have 5* rating?

+1 reply
sic-_maggot 10 Oct 17, 2006 01:14 PM

this is a great tab u stupid peice of shit its awesome and just yea gotta say lamb of god deffinatly it the greatest ****ing band ever

guest
You may want to rate the tab now too:
select rating
Wanna post a correction for this tab? Suggest correction