Oops, an error
Loading. Please wait.

Pariah tab

version 3
version 3

Whole song

Interactive

465 views 1 this week
1 commentread comment
1 2 3 4 5
x 3
add to favorites
×
Save as Personal and add changes to this tab that will be seen only by you. Learn more ›
×
You can save this tab as Personal to edit and correct it or add notes. All changes will be seen only by you. Learn more »
launch autoscroll
font size
0
reset
how to read this tab
guitar tuner
edit
Autoscroll
slow
fast
+/-
esc
set tempo
stop
Tabbed by Tim Davis
Song: Pariah
Artist: Lamb Of God
Tuning: Drop D (D A D G B e)

Legend:
pm - = palm mute
/ = slide up
\ = slide down
h = hammer on
* = pinch harmonic

This is my first tab, but the song is easy.  Enjoy.

(Willie)                                     ___________
|-------------------------------------------|           |
|-------------------------------------------|           |
|-------------------------------------------|           |
|-0-----------------------------------------|           |
|-0-----------------------------13-13-------|           |
|-0----------------12-12-12-12--------12-12-|           | 
pm  ^Let ring      ------------------------             |
                                                        |x4
(Mark)                                                  |
|-------------------------------------------|           |
|-------------------------------------------|           |
|-------------------------------------------|           |
|-------------------------------------------|           |
|-------------------------------13-13-------|           |
|-12-0--12-0--12---12-12-12-12--------12-12-|___________|
pm                 ------------------------

(Both)
|-------------------------------------------|  x4
|-------------------------------------------|
|-------------------------------------------|
|-------------------------------------------|
|-------------------------------------------|
|--5/6-0-6\4-0-4/5-0-0-0-0-0-0-1-1-1-0-0-0--|
pm     -     -     -----------------------

(Mark)
|------------------|  x6
|------------------|
|------------------|
|-------5-----5h6--|
|-0-0-0-5-0-0-5h6--|
|-0-0-0-5-0-0-5h6--|  
pm- - -   - -

(Both)
|-------------|
|-------------|
|-------------|
|-1-0-0-1-0-0-|
|-1-0-0-1-0-0-|
|-1-0-0-1-0-0-|
pm------------

(Both)
|-------------------------------| x4
|-------------------------------|
|-------------------------------|
|-------5-----5h6---------------|
|-0-0-0-5-0-0-5h6--1-0-0-1-0-0--|
|-0-0-0-5-0-0-5h6--1-0-0-1-0-0--|  
pm- - -   - -      - - - - - -


|-------------------------------| x4  |---| (On 4th, end with this)
|-------------------------------|     |---|
|-------------------------------|     |---|
|-------5-----5h6---------------|     |-0-|
|-0-0-0-5-0-0-5h6--1-0---1-0-0--|     |-0-|
|-0-0-0-5-0-0-5h6--1-0---1-0-0--|     |-0-| 
pm- - -   - -      - -   - - -          -

(Both)
|---------------------------------| x8 
|---------------------------------|
|---------------------------------|
|---------------------------------|
|---------------------------------|
|-000000-5b-000-5b-000-5b-0000-1*-|
pm------    ---    ---    ----

(Willie)
|----------------------------|  x16
|----------------------------|
|----------------------------|
|---------12----14----15-----|
|-0-0-0-0---16----16----17---|
|-0-0-0-0--------------------|


(Mark)
|---------------------------------|  x2 
|---------------------------------|
|--------9~-----------------------|
|--------7~--------------6~-------|
|0-0-0-0-5~--------------6~-------|
|0-0-0-0-----------------6~-------|

Then:
|----------------------------------|(until Willie ends)
|----------------------------------|
|----------------------------------|
|----------------------------------|
|-00000-000-000-0-000000-000-000-0-|
|-00000-000-000-0-000000-000-000-0-|
pm----- --- --- - ------ --- --- -

(Both end on)
|--------------------|
|--------------------|
|--------------------|
|-0--0----0------0---|
|-0--0----0------0---|
|-0--0----0------0---|
pm-  -    -      -

(Both)    "You piece of shit!..."
|-----------------------|     
|-----------------------| x3  
|-----------------------|     
|-0-0----0--00-0-0-0-0--|     
|-0-0----0--00-0-0-0-0--|     
|-0-0----0--00-0-0-0-0--|     
pm- -    -  -- - - - -

(Both)   (Yes, it's supposed to be farther apart)
|------------------------|
|------------------------|
|------------------------|
|-0-0------0--00-0-0-7-6-|     
|-0-0------0--00-0-0-7-6-|     
|-0-0------0--00-0-0-7-6-|
pm- -      -  -- - - - -

(Both)
|----------------------------------------------|     
|----------------------------------------------|  
|----------------------------------------------|     
|-6-6----6--66-6-6-6-6---6-6----6--66-6-6-6-0--|     
|-6-6----6--66-6-6-6-6---6-6----6--66-6-6-6-0--|     
|-6-6----6--66-6-6-6-6---6-6----6--66-6-6-6-0--|
pm- -    -  -- - - - -   - -    -  -- - - - -

(Both)
|-----------------------------------------------|    
|-----------------------------------------------|  
|-----------------------------------------------|     
|-0-0----0--00-0-0-0-0---0-0------0--00-0-0-0-0-|     
|-0-0----0--00-0-0-0-0---0-0------0--00-0-0-0-0-|     
|-0-0----0--00-0-0-0-0---0-0------0--00-0-0-0-0-|
pm- -    -  -- - - - -   - -      -  -- - - - -

(Willie plays this during solo)
|---------------------------------------------|    
|---------------------------------------------|  
|---------------------------------------------|     
|-0-0----0--00-0-0-0-0---0-0----0--00-0-0-7-6-|     
|-0-0----0--00-0-0-0-0---0-0----0--00-0-0-7-6-|     
|-0-0----0--00-0-0-0-0---0-0----0--00-0-0-7-6-|
pm- -    -  -- - - - -   - -    -  -- - - - -

|------------------------|     
|------------------------|  
|------------------------|     
|-6-6----6--66-6-6-6-6-0-|    
|-6-6----6--66-6-6-6-6-0-|    
|-6-6----6--66-6-6-6-6-0-|
pm- -    -  -- - - - - -

(Mark solo)
|--------------------------------------------------|     
|--------------------------------------------------|  
|--------------------------------------------------|
|--------------------------------------------------|     
|-7--8--4--5--4--5--7--8--10--4--5--7--8--10--4--5~|  
|--------------------------------------------------|
(All pinch harmonics)

(Both)
|---------------------------------| x8 
|---------------------------------|
|---------------------------------|
|---------------------------------|
|---------------------------------|
|-000000-5b-000-5b-000-5b-0000-1*-|
pm------    ---    ---    ----

(Willie)
|----------------------------|  x16
|----------------------------|
|----------------------------|
|---------12----14----15-----|
|-0-0-0-0---16----16----17---|
|-0-0-0-0--------------------|


(Mark)
|---------------------------------|  x2 
|---------------------------------|
|--------9~-----------------------|
|--------7~--------------6~-------|
|0-0-0-0-5~--------------6~-------|
|0-0-0-0-----------------6~-------|

Then:
|----------------------------------|(until Willie ends)
|----------------------------------|
|----------------------------------|
|----------------------------------|
|-00000-000-000-0-000000-000-000-0-|
|-00000-000-000-0-000000-000-000-0-|
pm----- --- --- - ------ --- --- -

(Both end on)
|--------------------|
|--------------------|
|--------------------|
|-0--0----0------0---|
|-0--0----0------0---|
|-0--0----0------0---|
pm-  -    -      -

(>^_^)>(::) and that's about it.

Any questions, email me at=  mrgoldylocks@yahoo.com





            
            
Suggest correction
Creating personal tab
Creating personal tab
You can edit any tab online and save it as your Personal.

You can edit, replace or remove any tab part or add personal notes – all changes will be seen only by you.

Personal tabs can be accessed anytime from any device, even offline.
Learn more »
Give kudos to tab author, rate the tab!
1 2 3 4 5
comments
print report bad tab
1 comment total.
0 reply
offbeat 26 Jun 12, 2007 11:17 AM

This dosn't seem hardly correct.

guest
You may want to rate the tab now too:
select rating
Wanna post a correction for this tab? Suggest correction