Oops, an error
Loading. Please wait.

Reclamation intro tab

version 1
version 1

Intro

Whole song

  • I am the original tab maker for this song back in ... Show more

Interactive

10,670 views 3 this week
6 commentsread comments
1 2 3 4 5
x 4
add to favorites
×
Save as Personal and add changes to this tab that will be seen only by you. Learn more ›
×
You can save this tab as Personal to edit and correct it or add notes. All changes will be seen only by you. Learn more »
launch autoscroll
font size
0
reset
how to read this tab
guitar tuner
backing track
0:00
0:00
edit
Autoscroll
slow
fast
+/-
esc
set tempo
stop
drop c#
D#|------------------------------------------------------------------------|
A#|-------------3----------------------------------------------------------|
F#|---------------2--------------------------------------------------------|
C#|-------0--------0-------------0----------7b-----------------------------|
G#|-----0----0-----------------0----0--3-3--5b-----------------------------|
c#|-1p0----------------1p0-1p0---------3-3---------------------------------|

You repeat it alot and when you do repeat it, you dont pull off the first note.  Have fun!




            
            
Suggest correction
Creating personal tab
Creating personal tab
You can edit any tab online and save it as your Personal.

You can edit, replace or remove any tab part or add personal notes – all changes will be seen only by you.

Personal tabs can be accessed anytime from any device, even offline.
Learn more »
comments
print report bad tab
6 comments total. Showing first comments.
+1 reply
metalrox20 10 Mar 08, 2009 08:22 PM

This is ain't right dude, need to work on it.

0 reply
PdMeasles 51 Mar 09, 2009 04:58 AM

Metalrox20...is sux at gramer

lol

+3 reply
Dimerah 63 Mar 12, 2009 08:00 AM

Close, you have the general idea

d#-----------------------------------------------------
a#---------3-------------------------------------------
f#-----2-----2------------2----------------------------
c#---------------------0----------6-6------------------
g#-0~-0--0----0-1p0-1p0----0--3-3-3-3------------------
c#-0~---------0-1p0-1p0----0--3-3-3-3------------------

guest
Wanna post a correction for this tab? Suggest correction