Oops, an error
Loading. Please wait.
11,852 views 1 this week
no commentswrite comment
1 2 3 4 5
x 5
add to favorites
×
Save as Personal and add changes to this tab that will be seen only by you. Learn more ›
×
You can save this tab as Personal to edit and correct it or add notes. All changes will be seen only by you. Learn more »
launch autoscroll
font size
0
reset
how to read this tab
guitar tuner
backing track
0:00
0:00
edit
Autoscroll
slow
fast
+/-
esc
set tempo
stop
Author
-------------------------------------------------------------------------------
			     Redneck – Lamb of God
-------------------------------------------------------------------------------


Tabbed by: emergencyroom

Email: reed_riot@hotmail.com


I used a video on youtube of Mark and Willie teaching this song to make sure this is all right

I’m pretty sure it’s mostly correct, few bits i wasnt sure about

Guitar I (D A D G B E) - 'Mark Morton'
Guitar II (D A D G B E) - 'Willie Adler'

Intro
Guitar I

|--------------|
|--------------|
|--------------|
|--------------|
|--------------|
|-----1/18\----|

Guitar 2

|--------------|
|--------------|
|--------------|
|--------------|
|--------------|
|-----1/11\----|

Guitar 1

|------------------------------------||
|------------------------------------||
|------------------------------------||
|------------------------------------||
|------------------------------------||
|---3p0-0-0---0-0-0-0—-10-12-10--0-0-||


|------------------------------------||
|------------------------------------||
|------------------------------------||
|------------------------------------||
|------------------------------------||
|-3p0-0-0---0-0-0-0-3-1-0-3-1-0-5-6--||     3x


Guitar 2
       								3x
|------------------------------------||---------------------------|
|------------------------------------||---------------------------|
|------------------------------------||---------------------------|
|------------------------------------||---------------------------|
|------------------------------------||---------------------------|
|---0-0-0-0--------------------------||-0-0-0-0-------------------|


Guitars 1 and 2

|---------------------------------|
|---------------------------------|
|---------------------------------|
|---------------------------------|
|---------------0-3-0-----0-------|
|-0-3-5-6-3-5-6-------6-5---6-5-3-|

|------------------------------|-----------------------------------|
|------------------------------|-----------------------------------|
|------------------------------|-----------------------------------|
|------------------------------|-----------------------------------|
|-0----------------------------|-----------------------------------|
|-0--0-0-0-0---10-12-10*-0-0---|-3p0-0-0---0-0-0-0-3-1-0-3-1-0-5-6-|


|------------------------------------|---------------------|
|------------------------------------|---------------------|
|------------------------------------|---------------------|
|------------------------------------|---------------------|
|------------------------------------|-------------------3-|
|-3p0-0-0---0-0-0-0---10-12-10---0-0-|-3-0-0-3-7—-6-—5*----|
				Only Guitar 2 does Pinch Harmonic


|------------------------------------|-------------------------------------|
|------------------------------------|-------------------------------------|
|------------------------------------|-------------------------------------|
|------------------------------------|-------------------------------------|
|------------------------------------|-------------------------------------|
|-3p0-0-0---0-0-0-0---10-12-10---0-0-|-3p0-0---0-0-0-0-0-3-1-0-3-1-0-5-6---|

|------------------------------------|----------------------------------|
|------------------------------------|----------------------------------|
|------------------------------------|----------------------------------|
|------------------------------------|----------------------------------|
|------------------------------------|----------------------------------|
|-3p0-0-0---0-0-0-0---10-12-10---0-0-|-7-6-0-6-5-0-5-3-0-3-5-6-0-3-5-6--|


|--------------------|--------------|
|--------------------|--------------|
|--------------------|--------------|
|--------------------|--------------|
|-3-0-----0-------0--|--------------|
|-----6-5---6-5-3-0--|--------/12\--|


Verse

 						 	            3x
||----------------------------------|----------------------------------||
||----------------------------------|----------------------------------||
||----------------------------------|----------------------------------||
||----------------------------------|----------------------------------||
||-1-0-1-0--------------------------|-------------------------3--------||
||-1-0-1-0--0-0-0—-0—-0--0--0-0-0-0-|---0—-0--0-0-0—-0—-0--0----0-1-3--||
Only do the 1 then 0 once on the first time

||------------------------------|------------------------|
||------------------------------|------------------------|
||------------------------------|------------------------|
||------------------------------|----------------------5-|
||-1-0--------------------------|----------------------3-|
||-1-0--0-0-0—-0—-0--0--0-0-0-0-|---0-0-0—-7---6---5-----|


Pre-Chorus
    										3x
||----------------------------------|-----------------------------------||
||----------------------------------|-----------------------------------||
||----------------------------------|-----------------------------------||
||----------------------------------|-----------------------------------||
||----------------------------------|-----------------------------------||
||--0-7\6-0-7\6-0-0-1p0-0-0-0-0-0-0-|-0-7\6-0-7\6-0-6\5-0-6\5-3-6-3-5---||

|---------------------------------|
|---------------------------------|
|---------------------------------|
|---------------------------------|
|-5-----------6-----------6-------|
|---6-5-0-5-6---7-5-0-5-7---7-6-3-|

Chorus

|------------------------------|-----------------------------------|
|------------------------------|-----------------------------------|
|------------------------------|-----------------------------------|
|------------------------------|-----------------------------------|
|-0----------------------------|-----------------------------------|
|-0--0-0-0-0---10-12-10*-0-0---|-3p0-0-0---0-0-0-0-3-1-0-3-1-0-5-6-|


|------------------------------------|-------------------|
|------------------------------------|-------------------|
|------------------------------------|-------------------|
|------------------------------------|-----------------5-|
|------------------------------------|-----------------3-|
|-3p0-0-0---0-0-0-0---10-12-10---0-0-|-3-0-0-3-7-6--5----|

|------------------------------------|-------------------------------------|
|------------------------------------|-------------------------------------|
|------------------------------------|-------------------------------------|
|------------------------------------|-------------------------------------|
|------------------------------------|-------------------------------------|
|-3p0-0-0---0-0-0-0---10-12-10---0-0-|-3p0-0-0---0-0-0-0-3-1-0-3-1-0-5-6---|

|------------------------------------|----------------------------------|
|------------------------------------|----------------------------------|
|------------------------------------|----------------------------------|
|------------------------------------|----------------------------------|
|------------------------------------|----------------------------------|
|-3p0-0-0---0-0-0-0---10-12-10---0-0-|-7-6-0-6-5-0-5-3-0-3-5-6-0-3-5-6--|


|--------------------|--------------|
|--------------------|--------------|
|--------------------|--------------|
|--------------------|--------------|
|-3-0-----0-------0--|--------------|
|-----6-5---6-5-3-0--|--------/15\--|


Repeat verse, pre-chorus and chorus


Bridge
Guitar 1

|-------------------|---------------------------|-------------------|
|-------------------|---------------------------|-------------------|
|-------------------|---------------------------|-------------------|
|-------------------|---------------------------|-------------------|
|-0--7-6-------5--3-|---0--------7-6-------5--3-|--0------7-6--5--3-|
|-0--7-6-------5--3-|---0--------7-6-------5--3-|--0------7-6--5--3-|


|-----------------|-----------------|
|-----------------|-----------------|
|-----------------|-----------------|
|-----------------|-----------------|
|---0~------------|-----------------|
|---0~------------|-----------------|


Guitar 2

|-------------------|---------------------------|-------------------|
|--------10~~~------|----------------12~~~------|-13~~~-------------|
|--------12b14~~~---|----------------14b16~~~---|-15b17~~~----------|
|-------------------|---------------------------|-------------------|
|-------------------|---------------------------|-------------------|
|-------------------|---------------------------|-------------------|

Breakdown

|----------------------------------------------|
|----------------------------------------------|
|----------------------------------------------|
|----------------------------------------------|
|-0--------------------------------------------|
|-0--------------------------------------------|


|----------------------------------------------|
|----------------------------------------------|
|----------------------------------------------|
|----------------------------------------------|
|----------11-13-------------------------------|
|---12-13--------12-13-10-13-11-13-10-13-11-14-|

Guitars 1 and 2

||----------------------------------|
||----------------------------------|
||----------------------------------|
||----------------------------------|
||----------------------------------|
||--0-0-0-0-0-0-0-0-0-0-0-0-0-0-0-0-|

							4x
|-------------------------------------------------||
|-------------------------------------------------||
|-------------------------------------------------||
|-------------------------------------------------||
|-----------11-13---------------------------------||
|-0-0-12-13-------12-13-10-13-11-13-10-13-11-14---||


									3x
|--------------------------------|
|--------------------------------|
|--------------------------------|
|--------------------------------|
|--0--0-0--0-0-0-0--0-0--0-0-0-0-|
|--0--0-0--0-0-0-0--0-0--0-0-0-0-|


|----------------------------------------------|
|----------------------------------------------|
|----------------------------------------------|
|----------------------------------------------|
|---------11-13--------------------------------|
|---12-13-------12-13-10-13-11-13-10-13-11-14--|


|--------------------------|
|--------------------------|
|--------------------------|
|--------------------------|
|-0--0-0--0-0-0-0--0--12\--|
|-0--0-0--0-0-0-0--0--12\--|


Pre-Chorus 2

Only Guitar 1

|------------------------------------|------------------------------------|
|------------------------------------|------------------------------------|
|------------------------------------|------------------------------------|
|------------------------------------|------------------------------------|
|------------------------------------|------------------------------------|
|-3p0-0-0---0-0-0-0---10-12-10---0-0-|-3p0-0-0---0-0-0-0-3-1-0-3-1-0-5-6--|


|------------------------------------|----------------------------------|
|------------------------------------|----------------------------------|
|------------------------------------|----------------------------------|
|------------------------------------|----------------------------------|
|------------------------------------|---------------0-3-0--------------|
|-3p0-0-0---0-0-0-0---10-12-10---0-0-|-0-3-5-6-3-5-6-------6-5-7-6-5-0--|


Chorus


Outro
Guitar 1

|-------------------|---------------------------|
|-------------------|---------------------------|
|-------------------|---------------------------|
|-0--7-6-------5--3-|---0--------7-6-------5--3-|
|-0--7-6-------5--3-|---0--------7-6-------5--3-|
|-0--7-6-------5--3-|---0--------7-6-------5--3-|


Guitar 2
|-------------------|---------------------------|
|--------10~~~------|-------12~~~---------------|
|--------12b14~~~---|-------14b16~~~------------|
|-------------------|---------------------------|
|-------------------|---------------------------|
|-------------------|---------------------------|

|---------------------------|----------------------|
|---------------------------|----------------------|
|---------------------------|----------------------|
|---0--------7-6-------5--3-|---0--------7-6--5--3-|
|---0--------7-6-------5--3-|---0--------7-6--5--3-|
|---0--------7-6-------5--3-|---0--------7-6--5--3-|


|--------------------------|
|-----13~~~----------------|
|-----15b17~~~-------------|
|--------------------------|
|--------------------------|
|--------------------------|


|----------------------|---------------------------|
|----------------------|---------------------------|
|----------------------|---------------------------|
|---0---7-6-------5--3-|---0--------7-6-------5--3-|
|---0---7-6-------5--3-|---0--------7-6-------5--3-|
|---0---7-6-------5--3-|---0--------7-6-------5--3-|


|----------------------|---------------------------|
|------10~~~-----------|----12~~~------------------|
|------12b14~~~--------|----14b16~~~---------------|
|----------------------|---------------------------|
|----------------------|---------------------------|
|----------------------|---------------------------|

|-------------------||----------------------|
|-------------------||----------------------|
|-------------------||----------------------|
|--0------7-6--5--3-||---0-0------7-6--5--3-|
|--0------7-6--5--3-||---0-0------7-6--5--3-|
|--0------7-6--5--3-||---0-0------7-6--5--3-|
		        . .

|-------------------|----------------------|
|-17b20~~~----------|----------------------|
|-------------------|----------------------|
|-------------------|----------------------|
|-------------------|----------------------|
|-------------------|----------------------|


|-------------------|----------------------|-----------------|-------------|
|-------------------|----------------------|-----------------|-------------|
|-------------------|----------------------|-----------------|-------------|
|--0-0----7-6--5--3-|---0-0------7-6--5--3-|---0~------------|-------------|
|--0-0----7-6--5--3-|---0-0------7-6--5--3-|---0~------------|-------------|
|--0-0----7-6--5--3-|---0-0------7-6--5--3-|---0~------------|-------------|
   . .		       . .


|-17----------------|
|-20b22~~~----------|
|-------------------|
|-------------------|
|-------------------|
|-------------------|

Note: most of the open D notes in quick rhythm would be slightly palm muted

* = pinch harmonic
~ = let ring
b = bend
. = palm mute

            
            
Suggest correction
Creating personal tab
Creating personal tab
You can edit any tab online and save it as your Personal.

You can edit, replace or remove any tab part or add personal notes – all changes will be seen only by you.

Personal tabs can be accessed anytime from any device, even offline.
Learn more »
comments
print report bad tab
guest
You may want to rate the tab now too:
select rating
Wanna post a correction for this tab? Suggest correction