Oops, an error
Loading. Please wait.

Requiem bass

version 1
version 1

Whole song

Interactive

2,029 views 1 this week
no commentswrite comment
1 2 3 4 5
x 4
add to favorites
×
Save as Personal and add changes to this tab that will be seen only by you. Learn more ›
×
You can save this tab as Personal to edit and correct it or add notes. All changes will be seen only by you. Learn more »
launch autoscroll
font size
0
reset
guitar tuner
backing track
0:00
0:00
edit
Autoscroll
slow
fast
+/-
esc
set tempo
stop
                                   REQUIEM
                                 LAMB OF GOD
                                  SACRAMENT

Tabbed by Carson the Great VII
Future Ruler of the World

Keep in mind that most of this was learned from the Producer's Edition, so if something 
like it should just be a repeat, please trust my judgement.  There's probably still some 
in it tho.


INTRO
G ----------------------------------------|
D ----------------------------------------|
A --------------------------------55---44-|
D 0-33-0-33-0-33-0-33-0-22-0-22-0----0----|

G -----------------------------------------|
D -----------------------------------------|
A -------------------------------------5-4-|
D 0-33-0-33-0-33-0-33-0-22-0-55-0-33-0-----|

G -----------------------------------------------------------------|
D -----------------------------------------------------------------|
A --------------------------------55-------------------------------|
D 0-33-0-33-0-33-0-33-0-22-0-22-0----6530-2/3--0-2/3--0-2/3--0-2/4-|

G ----------------------------------------|
D ----------------------------------------|
A ----------------------------------------|
D 0-33-0-33-0-33-0-33-0-22-0-22-0-88-0-77-|

G ------------------------------------|
D ------------------------------------|
A ------------------------------------|
D 0-33-0-33-0-33-0-33-0-88-0-87-75-54-|
For those of you with no common sense, 33 and 87 ect are 2 DIFFERENT NOTES.

G ------------------------------------------------------------------|
D ------------------------------------------------------------------|
A ------------------------------------------------------------------|
D 0-33-0-33-0-33-0-33-0-22-0-22-0-55-0-5-0-2/3--0-2/3--0-2/3--0-2/4-|

VERSE
G ----------------------------------------|
D ----------------------------------------|
A ----------------------------------------|
D 0--000-1p0-00-1p0-000-44444444-11111111-|

G -----------------------------------------|
D -----------------------------------------|
A -----------------------------------------|
D 0--000-1p0-00-1p0-3-6-7~~6-2-5~~~2-0-7\0-|

G ------------------------------------|
D ------------------------------------|
A ------------------------------------|
D 00000000100010001-44444444-11111111-|

G ----------------------------------------------------------|
D ----------------------------------------------------------|
A ----------------------------------------------------------|
D 0000000010001000-3-6-7~~6-2-5~~~2-0-2222222222222222-4444-|

G ---------------------|
D ---------------5---4-|
A 3-6-2-3--3-6-3---3---|
D ---------------------|

CHORUS
(Same as the first 3 lines of the intro, X1)
VERSE X1

CHORUS 2
Same as the first chorus, but replace the last line with this:
G ------------------------------------------------------------------------|
D ------------------------------------------------------------------------|
A --------------------------------55--------------------------------------|
D 0-33-0-33-0-33-0-33-0-22-0-22-0----6530-2-1-0-4-3-0-1-0-4-3-0-1-0-3-0-6-|

INTERLUDE
G ---------------------------|
D ---------------------------|
A ---------------5-5-5-5-----|
D ----------0~~~~--------7-3-|

G ---------------------------------|              \
D ---------------------------------|               \
A ---------------  X2--------------|            \
D 000-000-000-000------------------|                 \
                                   \
                                    \
G --------------------------------------|    \
D --------------------------------------|     \
A --------------------------------------|  X3  \ Palm Muted
D 444-444-111-111-333-333-333-333-------|      /
                                      /
G --------------------------------|    /
D --------------------------------|   /
A --------------------------------|  /
D 444-444-111-111-000-000-000-000-| /

BREAK
G -------------------------------------|
D -------------------------------------|
A ----------------------------474743---|  X4
D 444-444-4h5p4-444-4h5p4-444----------|

2nd INTERLUDE
G --------------------------------------|    \
D --------------------------------------|     \
A --------------------------------------|  X3  \ Palm Muted
D 444-444-111-111-333-333-333-333-------|      /
                                      /
G --------------------------------|    /
D --------------------------------|   /
A --------------------------------|  /
D 444-444-111-111-000-000-000-000-| /

SOLO
G -------------------------------------|
D -------------------------------------|
A ----------------------------474743---|  X4
D 444-444-4h5p4-444-4h5p4-444----------|

G -------------------------------------|
D -------------------------------------|
A ----------------------------141410---|  X4
D 000-000-0h1p0-000-0h1p0-000----------|

BRIDGE
G -------------------------------------------------------------|
D -------------------------------------------------------------|
A -------------------141410-----------------------------141410-|
D 111-111-1~~444-444--------000-000-0h1p0-000-0h1p0-000--------|

G ------------------------------------|
D ------------------------------3---5-|
A ------------------------3-1-0-------|
D 111-111-111-111-444-444-------------|

OUTRO  (Sink, suffer, self destruct...)
G -------------------------------------------------------------------------|
D -------------------------------------------------------------------------|
A -------------------------------------------------------------------------| X2
D 4--44--1--11-1111-3--33-33-33-333-4--44--41--11--10--00-0-3-0-3-0-3-0-5--|

G -----------------------------------------------------------------------|
D -----------------------------------------------------------------------|
A -----------------------------------------------------------------------|
D 111-111-1~~444-444-444-333-000-000-000-000-121212-121212-121212-111111-|
                                            (12's and 11's, not 1's and 2's)

G -----------------------------------------------------------|
D -----------------------------------------------------------|
A -----------------------------------------------------------|
D 111-111-1~~444-444-444-333-000-000-000-000-888-888-777-777-|

G -----------------------------------------------------------------------|
D -----------------------------------------------------------------------|
A -----------------------------------------------------------------------|
D 111-111-1~~444-444-444-333-000-000-000-000-121212-121212-121212-111111-|

G -----------------------------------------------------------|
D -----------------------------------------------------------|
A -----------------------------------------------------------|
D 111-111-1~~444-444-444-444-12-12-12-12-12-12-0-0-0-0-0-0-0-|
                              .  .  .  .  .  . . . . . . . .


Please rate and comment, i really want to have this perfect.

            
            
Suggest correction
Creating personal tab
Creating personal tab
You can edit any tab online and save it as your Personal.

You can edit, replace or remove any tab part or add personal notes – all changes will be seen only by you.

Personal tabs can be accessed anytime from any device, even offline.
Learn more »
comments
print report bad tab
guest
You may want to rate the tab now too:
select rating
Wanna post a correction for this tab? Suggest correction