Oops, an error
Loading. Please wait.
We have an official Ruin tab made by UG professional guitarists. Check out the tab »
×
21,913 views 66 this week
no commentswrite comment
1 2 3 4 5
x 4
add to favorites
×
Save as Personal and add changes to this tab that will be seen only by you. Learn more ›
×
You can save this tab as Personal to edit and correct it or add notes. All changes will be seen only by you. Learn more »
launch autoscroll
font size
0
reset
how to read this tab
guitar tuner
backing track
0:00
0:00
edit
Autoscroll
slow
fast
+/-
esc
set tempo
stop
#----------------------------------PLEASE NOTE---------------------------------#
#This file is the author's own work and represents their interpretation of the #
#song. You may only use this file for private study, scholarship, or research. #
#------------------------------------------------------------------------------##

                                      RUIN
                           As recorded by Lamb of God
                    (From the 2003 Album AS THE PALACES BURN)

Words and Music by Lamb of God
Transcribed by GuitarHeroJP

Gtr I (D A D G B E) - 'Willie Adler'
Gtr II (D A D G B E) - 'Mark Morton'

   Intro
    Q=200
   12/8
    Gtrs I, II
    PM--|   PM  PM--|   PM    PM--|   PM  PM--|   PM
    E E E E E E E E E E E E   E E E E E E E E E E E E   4x
||--------------------------|---------------------------||
||o-------------------------|--------------------------o||
||--------------------------|---------------------------||
||--------------------------|---------------------------||
||o-------5---6-------5---6-|-------5---6-------5---6--o||
||--0-0-0-5-0-6-0-0-0-5-0-6-|-0-0-0-5-0-6-0-0-0-5-0-6---||


    PM----|   PM  PM----|   PM    PM----|   PM  PM  PM  PM
    E S S E E E E E S S E E E E   E S S E E E E E E E E E E
||------------------------------|----------------------------||
||o-----------------------------|---------------------------o||
||------------------------------|----------------------------||
||------------------------------|----------------------------||
||o-----------------------------|---------------------------o||
||--2-2-2-2-5-2-6-2-2-2-2-5-2-6-|-2-2-2-2-5-2-6-2-5-2-3-2-5--||


    Gtr I
    PM----|   PM  PM----|   PM    PM----|   PM  PM  PM  PM
    E S S E E E E E S S E E E E   E S S E E E E E E E E E E
||------------------------------|----------------------------||
||o-----------------------------|---------------------------o||
||------------------------------|----------------------------||
||------------------------------|----------------------------||
||o-----------------------------|---------------------------o||
||--2-2-2-2-5-2-6-2-2-2-2-5-2-6-|-2-2-2-2-5-2-6-2-5-2-3-2-5--||
|
|   Gtr II
|   PM----|   PM  PM----|   PM    PM----|   PM  PM  PM  PM
|   E S S E E E E E S S E E E E   E S S E E E E E E E E E E
||------------------------------|----------------------------||
||o-----------------------------|---------------------------o||
||------------------------------|----------------------------||
||------------------------------|----------------------------||
||o---------2---3---------2---3-|---------2---3---2---0---2-o||
||--2-2-2-2---2---2-2-2-2---2---|-2-2-2-2---2---2---2---2----||


    PM--|   PM  PM--|   PM    PM--|   PM  PM--|   PM
    E E E E E E E E E E E E   E E E E E E E E E E E E  4x
||--------------------------|--------------------------||
||o-------------------------|-------------------------o||
||--------------------------|--------------------------||
||--------------------------|--------------------------||
||o-------5---6-------5---6-|-------5---6-------5---6-o||
||--0-0-0-5-0-6-0-0-0-5-0-6-|-0-0-0-5-0-6-0-0-0-5-0-6--||


 Verse
  Gtr I
  PM---|   PM  PM-------------------|   PM
  E  E E E E E E E E S S E E   E  E E E E E E E E E E E
|----------------------------|--------------------------|
|----------------------------|--------------------------|
|----------------------------|--------------------------|
|----------------------------|--------------------------|
|--------5---6---------------|--------5---6-8-7---6-5---|
|-0--0-0---0---0-0-0-0-0-0-0-|-0--0-0---0-------9-----8-|
|
| Gtr II
| W.                           W.
|----------------------------|--------------------------|
|----------------------------|--------------------------|
|----------------------------|--------------------------|
|----------------------------|--------------------------|
|----------------------------|--------------------------|
|----------------------------|--------------------------|


  PM---|   PM  PM-------------------|   PM|   PM------|
  E  E E E E E E E E S S E E   E  E E E E E E E E E E E
|----------------------------|---------------------------|
|----------------------------|---------------------------|
|----------------------------|---------------------------|
|----------------------------|---------------------------|
|--------5---6---------------|--------6-----5------------|
|-0--0-0---0---0-0-0-0-0-0-0-|-0--6-7---7-6---6-5-0-3-6--|
|
| W.                           W.
|----------------------------|---------------------------|
|----------------------------|---------------------------|
|----------------------------|---------------------------|
|----------------------------|---------------------------|
|----------------------------|---------------------------|
|----------------------------|---------------------------|


  Gtrs I, II
  PM--|   PM  PM------------------|   PM
  E E E E E E E E E S S E E   E E E E E E E E E E E E
|---------------------------|-------------------------|
|---------------------------|-------------------------|
|---------------------------|-------------------------|
|---------------------------|-------------------------|
|-------5---6---------------|-------5---6-8-7---6-5---|
|-0-0-0---0---0-0-0-0-0-0-0-|-0-0-0---0-------9-----8-|


  PM--|   PM  PM----------|
  E E E E E E E E E S S E E   E E E E E E E E E E E E
|---------------------------|--------------------------|
|---------------------------|--------------------------|
|---------------------------|--------------------------|
|---------------------------|--------------------------|
|-------5---6---------------|-----3-3/6-6-6\5-5\3/5-5--|
|-0-0-0---0---0-0-0-0-0-0-0-|-0h3-3-3/6-6-6\5-5\3/5-5--|


    Gtr I
    PM--|   PM  PM------------------|   PM
    E E E E E E E E E S S E E   E E E E E E  E E E E E E
||----------------------------|--------------------------|
||o---------------------------|--------------------------|
||----------------------------|--------------------------|
||----------------------------|--------------------------|
||o-------5---6---------------|-------5---6--8-7---6-5---|
||--0-0-0---0---0-0-0-0-0-0-0-|-0-0-0---0--------9-----8-|
|
|   Gtr II
|   PM--|   PM  PM------------------|   PM
|   E E E E E E E E E S S E E   E E E E E E  E E E E E E
||----------------------------|--------------------------|
||o---------------------------|--------------------------|
||----------------------------|--------------------------|
||--------7---8---------------|-------7---8-10-9---8-7---|
||o---------------------------|------------------9-----8-|
||--0-0-0---0---0-0-0-0-0-0-0-|-0-0-0---0----------------|


                              1.
  PM--|   PM  PM------------------|   PM|   PM------|
  E E E E E E E E E S S E E   E E E E E E E E E E E E
|---------------------------|-----------------------------||
|---------------------------|----------------------------o||
|---------------------------|-----------------------------||
|---------------------------|-----------------------------||
|-------5---6---------------|-------6-----5--------------o||
|-0-0-0---0---0-0-0-0-0-0-0-|-0-6-7---7-6---6-5-0-3-6-----||
|
| PM--|   PM  PM------------------|   PM|   PM------|
| E E E E E E E E E S S E E   E E E E E E E E E E E E
|---------------------------|-----------------------------||
|---------------------------|----------------------------o||
|---------------------------|-----------------------------||
|-------7---8---------------|-----------------------------||
|---------------------------|-------6-----5--------------o||
|-0-0-0---0---0-0-0-0-0-0-0-|-0-6-7---7-6---6-5-0-3-6-----||


  2.
  Gtrs I, II
  E E E E E E E E E E E E
|-------------------------|-|
|-------------------------|-|
|-------------------------|-|
|-------------------------|-|
|-----3-3/6-6-6\5-5\3/5-5-|-|
|-0h3-3-3/6-6-6\5-5\3/5-5-|-|


   Pre-Chorus
    Gtr I
    PM----|     PM----|         PM--|
    E E E E E E E E E E E E   E E E E E E E E E E E E
||--------------------------|-------------------------|
||o-------------------------|-------------------------|
||--------------------------|-------------------------|
||--------------------------|-------------------------|
||o---------5-5---------6-6-|---------5-5-6-6-6-3-3-3-|
||--0-0-0-0-----0-0-0-0-----|---0-0-0-----------------|
|
|   Gtr II
|   PM----|     PM----|         PM--|
|   E E E E E E E E E E E E   E E E E E E E E E E E E
||--------------------------|-------------------------|
||o-------------------------|-------------------------|
||--------------------------|-------------------------|
||----------7-7---------8-8-|---------7-7-8-8-8-5-5-5-|
||o-------------------------|-------------------------|
||--0-0-0-0-----0-0-0-0-----|---0-0-0-----------------|


  PM----|     PM----|         PM--|
  E E E E E E E E E E E E   E E E E E E E E E E E E
|-------------------------|---------------------------||
|-------------------------|--------------------------o||
|-------------------------|---------------------------||
|-------------------------|-------------------8-7-7---||
|---------5-5---------6-6-|---------5-5-6-6-6--------o||
|-0-0-0-0-----0-0-0-0-----|---0-0-0-------------------||
|
| PM----|     PM----|         PM--|
| E E E E E E E E E E E E   E E E E E E E E E E E E
|-------------------------|---------------------------||
|-------------------------|--------------------------o||
|-------------------------|---------------------------||
|---------7-7---------8-8-|---------7-7-8-8-8---------||
|---------5-5---------6-6-|-------------------8-7-7--o||
|-0-0-0-0-----0-0-0-0-----|---0-0-0-------------------||


    PM----|     PM----|       PM----|
    E E E E E E E E E E E E   E E E E E E E E E E E E
||--------------------------|-------------------------|
||o-------------------------|-------------------------|
||--------------------------|-------------------------|
||--------------------------|-------------------------|
||o---------5-5---------6-6-|---------5-5-6-6-6-3-3-3-|
||--0-0-0-0-----0-0-0-0-----|-0-0-0-0-----------------|
|
|   PM----|     PM----|       PM----|
|   E E E E E E E E E E E E   E E E E E E E E E E E E
||--------------------------|-------------------------|
||o-------------------------|-------------------------|
||--------------------------|-------------------------|
||----------7-7---------8-8-|---------7-7-8-8-8-5-5-5-|
||o-------------------------|-------------------------|
||--0-0-0-0-----0-0-0-0-----|-0-0-0-0-----------------|


  PM----|     PM----|       PM----|
  E E E E E E E E E E E E   E E E E E E E E E E E E
|-------------------------|---------------------------||
|-------------------------|--------------------------o||
|-------------------------|---------------------------||
|-------------------------|-------------------8-7-7---||
|---------5-5---------6-6-|---------5-5-6-6-6--------o||
|-0-0-0-0-----0-0-0-0-----|-0-0-0-0-------------------||
|
| PM----|     PM----|       PM----|
| E E E E E E E E E E E E   E E E E E E E E E E E E
|-------------------------|---------------------------||
|-------------------------|--------------------------o||
|-------------------------|---------------------------||
|---------7-7---------8-8-|---------7-7-8-8-8---------||
|---------5-5---------6-6-|-------------------8-7-7--o||
|-0-0-0-0-----0-0-0-0-----|-0-0-0-0-------------------||


   Chorus
    Q.   E E E E E E E E E    E  E E E E E E E E E E E
||-------------------------|---------------------------|
||o------------------------|---------------------------|
||-------------------------|---------------------------|
||-------------------------|---------------------------|
||o-0----------1-----------|---------------------------|
||--0----0-0-0-1p0-0-0-0-0-|--4p-0-3p0-0-0-0-3-5-0-3-6-|
|
|   W.                       +W.
||-------------------------|---------------------------|
||o------------------------|---------------------------|
||--9----------------------|-(9)-----------------------|
||--7----------------------|-(7)-----------------------|
||o-5----------------------|-(5)-----------------------|
||--0----------------------|-(0)-----------------------|


   Q.   E E E E E E E E E     E  E E E E E E E E E E E
|-------------------------|------------------------------||
|-------------------------|-----------------------------o||
|-------------------------|------------------------------||
|-------------------------|------------------------------||
|--0----------1-----------|----------------------1-0-0--o||
|--0----0-0-0-1p0-0-0-0-0-|---4p-0-3p0-0-0-0-3-5---------||
|
|  W.                        +W.
|-------------------------|------------------------------||
|-------------------------|-----------------------------o||
|-10----------------------|-(10)-------------------------||
|--8----------------------|--(8)-------------------------||
|--6----------------------|--(6)------------------------o||
|-------------------------|------------------------------||


   Verse 2
    PM--|   PM  PM------------------|   PM
    E E E E E E E E E S S E E   E E E E E E  E E E E E E
||----------------------------|--------------------------|
||o---------------------------|--------------------------|
||----------------------------|--------------------------|
||----------------------------|--------------------------|
||o-------5---6---------------|-------5---6--8-7---6-5---|
||--0-0-0---0---0-0-0-0-0-0-0-|-0-0-0---0--------9-----8-|
|
|   PM--|   PM  PM------------------|   PM
|   E E E E E E E E E S S E E   E E E E E E  E E E E E E
||----------------------------|--------------------------|
||o---------------------------|--------------------------|
||----------------------------|--------------------------|
||--------7---8---------------|-------7---8-10-9---8-7---|
||o---------------------------|------------------9-----8-|
||--0-0-0---0---0-0-0-0-0-0-0-|-0-0-0---0----------------|


                              1.
  PM--|   PM  PM------------------|   PM|   PM------|
  E E E E E E E E E S S E E   E E E E E E E E E E E E
|---------------------------|-----------------------------||
|---------------------------|----------------------------o||
|---------------------------|-----------------------------||
|---------------------------|-----------------------------||
|-------5---6---------------|-------6-----5--------------o||
|-0-0-0---0---0-0-0-0-0-0-0-|-0-6-7---7-6---6-5-0-3-6-----||
|
| PM--|   PM  PM------------------|   PM|   PM------|
| E E E E E E E E E S S E E   E E E E E E E E E E E E
|---------------------------|-----------------------------||
|---------------------------|----------------------------o||
|---------------------------|-----------------------------||
|-------7---8---------------|-----------------------------||
|---------------------------|-------6-----5--------------o||
|-0-0-0---0---0-0-0-0-0-0-0-|-0-6-7---7-6---6-5-0-3-6-----||


  2.
  E E E E E E E E E E E E
|-------------------------|-|
|-------------------------|-|
|-------------------------|-|
|-------------------------|-|
|-----3-3/6-6-6\5-5\3/5-5-|-|
|-0h3-3-3/6-6-6\5-5\3/5-5-|-|


 Solo
  Gtr I
   PM-------|   PM  PM----|      PM     PM-----|    PM  PM    PM   PM
   E    S S E E E E E S S   E  E E E    E  S S  E E E E E E   E E  E E
|------------------------------------|---------------------------------|
|------------------------------------|---------------------------------|
|------------------------------------|---------------------------------|
|------------------------------------|---------------------------------|
|------------------------------------|---------------------------------|
|--2----2-2-2-5-2-6-2-2-2---2--5-2-6-|--2--2-2--2-5-2-6-2-5---2-3--2-5-|
|
| Gtr II
|                                          PM-------|
|  W                       +Q.     E   +E  S S  E E E E E S S E E  E E
|-12b14r------------------(12)-------|---------------------------------|
|------------------------------------|------------------7-8p7----------|
|----------------------------------8-|-(8)------------8-------9-8----8-|
|------------------------------------|------------7-9-------------10---|
|------------------------------------|-----7-9-10----------------------|
|------------------------------------|---------------------------------|


   PM-------|   PM  PM-----|   PM     PM-------|      PM   PM   PM  PM
   E    S S E E E E E  S S E E E E    E    S S E   E  E  E E  E E E E E
|----------------------------------|-------------------------------------|
|----------------------------------|-------------------------------------|
|----------------------------------|-------------------------------------|
|----------------------------------|-------------------------------------|
|----------------------------------|-------------------------------------|
|--2----2-2-2-5-2-6-2--2-2-2-5-2-6-|--2----2-2-2---5--2--6-2--5-2-3-2-5--|
|
|                   ~~                                     ~~
|  H.               H.                Q.          +Q     E H.
|----------------------------------|-------------------------------------|
|-10b12r------------7--------------|-12b13-------(12)---10\7-------------|
|----------------------------------|-------------------------------------|
|----------------------------------|-------------------------------------|
|----------------------------------|-------------------------------------|
|----------------------------------|-------------------------------------|


   PM-----|      PM    PM-----|      PM
   E  S S  E  E  E  E  E  S S  E  E  E  E
|-----------------------------------------|
|-----------------------------------------|
|-----------------------------------------|
|-----------------------------------------|
|-----------------------------------------|
|--2--2-2--2--5--2--6--2--2-2--2--5--2--6-|
|
|  E  E    E  E  E  E  E  E    E  E  E  E
|-19-15------15-19-15-20-15---19-15-17-15-|
|---------17------------------------------|
|-----------------------------------------|
|-----------------------------------------|
|-----------------------------------------|
|-----------------------------------------|


   PM-----|      PM    PM    PM    PM
   E  S S  E  E  E  E  E  E  E  E  E  E
|----------------------------------------|
|----------------------------------------|
|----------------------------------------|
|----------------------------------------|
|----------------------------------------|
|--2--2-2--2--5--2--6--2--5--2--3--2--5--|
|
|  E  E    E  E  E  E  E  E  E  E  E  E
|-17-14------14-17-14-19-14-17-14-15-14--|
|---------17-----------------------------|
|----------------------------------------|
|----------------------------------------|
|----------------------------------------|
|----------------------------------------|


   PM-----|      PM    PM-----|      PM
   E  S S  E  E  E  E  E  S S  E  E  E  E
|-----------------------------------------|
|-----------------------------------------|
|-----------------------------------------|
|-----------------------------------------|
|-----------------------------------------|
|--2--2-2--2--5--2--6--2--2-2--2--5--2--6-|
|
|  E  E    E  E  E  E  E  E    E  E  E  E
|-17-14------14-17-14-19-14---17-14-15-14-|
|---------15------------------------------|
|-----------------------------------------|
|-----------------------------------------|
|-----------------------------------------|
|-----------------------------------------|


   PM-----|      PM    PM    PM    PM
   E  S S  E  E  E  E  E  E  E  E  E  E
|----------------------------------------|
|----------------------------------------|
|----------------------------------------|
|----------------------------------------|
|----------------------------------------|
|--2--2-2--2--5--2--6--2--5--2--3--2--5--|
|
|  E  E    E  E  E  E  E  E  E  E  E  E
|-15-14------14--------------------------|
|---------17----17-15-17-15-13-15-13-12--|
|----------------------------------------|
|----------------------------------------|
|----------------------------------------|
|----------------------------------------|


 Drum Fill
  Q=168
                 2/4
  W.              H
|---------------|------|
|---------------|------|
|---------------|------|
|---------------|------|
|---------------|------|
|---------------|------|


   Break
   4/4                       3/4
    Gtrs I, II
    PM--------------------|     PM|
    E S E S S S S S E E S S   E S S S S S S S  S  S  S
||--------------------------|--------------------------|
||o-------------------------|--------------------------|
||--------------------------|--------------------------|
||--------------------------|--------------------------|
||o-0---0---0-0-0-0-0-0---0-|---0-0-6-6-6-6-6/10-10-10-|
||--0---0---0-0-0-0-0-0---0-|---0-0--------------------|


 4/4                       3/4
  PM--------------------|     PM|
  E S E S S S S S E E S S   E S S S S S S S S S S  4x
|-------------------------|------------------------||
|-------------------------|-----------------------o||
|-------------------------|------------------------||
|-------------------------|------------------------||
|-0---0---0-0-0-0-0-0---0-|---0-0-6-6-6-6-6\3-3-3-o||
|-0---0---0-0-0-0-0-0---0-|---0-0------------------||


   4/4                             3/4
    E +S  E +S  S S S S E E +S  S   +E  S S S S S S S  S  S  S
||--------------------------------|----------------------------|
||o-------------------------------|----------------------------|
||--------------------------------|----------------------------|
||--------------------------------|----------------------------|
||o-------------------------------|---------6-6-6-6-6/10-10-10-|
||--0-(0)-0-(0)-0-0-0-0-0-0-(0)-0-|-(0)-0-0--------------------|


                                 3/4
  E +S  E +S  S S S S E E +S  S   +E  S S S S S S S S S S
|-------------------------------|--------------------------||
|-------------------------------|-------------------------o||
|-------------------------------|--------------------------||
|-------------------------------|--------------------------||
|-------------------------------|---------6-6-6-6-6\3-3-3-o||
|-0-(0)-0-(0)-0-0-0-0-0-0-(0)-0-|-(0)-0-0------------------||


   Outro
    Q=115
   4/4
    Gtr I
    PM-------------------------------------------|
                                   |-3-| |--3----|
    E. S +E  E E. S +E  E   E Q  E E E E E  E  E
||------------------------|----------------------|
||o-----------------------|----------------------|
||------------------------|----------------------|
||------------------------|----------------------|
||o-0--0-(0)-0----0-(0)-0-|---0--0-5h6-6-6/10-10-|
||--0--0-(0)-0----0-(0)-0-|---0--0---------------|
|
|   Gtr II
|   PM-------------------------------------------|
|                                  |-3-| |--3----|
|   E. S +E  E E. S +E  E   E Q  E E E E E  E  E
||------------------------|----------------------|
||o-----------------------|----------------------|
||------------------------|----------------------|
||------------------------|--------7h8-8-8/12-12-|
||o-0--0-(0)-0----0-(0)-0-|---0--0---------------|
||--0--0-(0)-0----0-(0)-0-|---0--0---------------|


  PM-----------------------------------------|
                                 |-3-| |-3---|
  E. S +E  E E. S +E  E   E Q  E E E E E E E
|-----------------------|---------------------||
|-----------------------|--------------------o||
|-----------------------|---------------------||
|-----------------------|---------------------||
|-0--0-(0)-0----0-(0)-0-|---0--0-5h6-6-6\3-3-o||
|-0--0-(0)-0----0-(0)-0-|---0--0--------------||
|
| PM-----------------------------------------|
|                                |-3-| |-3---|
| E. S +E  E E. S +E  E   E Q  E E E E E E E
|-----------------------|---------------------||
|-----------------------|--------------------o||
|-----------------------|---------------------||
|-----------------------|--------7h8-8-8\5-5--||
|-0--0-(0)-0----0-(0)-0-|---0--0-------------o||
|-0--0-(0)-0----0-(0)-0-|---0--0--------------||


   H             H               E.      S     +E   Q.          Q
|-----------------------------|--------------------------------------------|
|-17b19---------17b19---------|-17b19---17b19-(17)-17b19-------17b19-------|
|-----------------------------|--------------------------------------------|
|-----------------------------|--------------------------------------------|
|-----------------------------|--------------------------------------------|
|-----------------------------|--------------------------------------------|
|
|  PM----------------------------------------------------------------------|
|                                                        |-3-|  |---3------|
|  E.   S +E  E  E.   S +E  E    E    Q             E    E E E  E     E  E
|-----------------------------|--------------------------------------------|
|-----------------------------|--------------------------------------------|
|-----------------------------|--------------------------------------------|
|-----------------------------|--------------------------------------------|
|--0----0-(0)-0-------0-(0)-0-|-------0-------------0----5h6-6--6/---10-10-|
|--0----0-(0)-0-------0-(0)-0-|-------0-------------0----------------------|


   H             H               W
|-----------------------------|-18----------------------|
|-17b19---------17b19---------|-17b18-------------------|
|-----------------------------|-------------------------|
|-----------------------------|-------------------------|
|-----------------------------|-------------------------|
|-----------------------------|-------------------------|
|
|  PM---------------------------------------------------|
|                                           |-3-| |-3---|
|  E.   S +E  E  E.   S +E  E    E    Q   E E E E E E E
|-----------------------------|-------------------------|
|-----------------------------|-------------------------|
|-----------------------------|-------------------------|
|-----------------------------|-------------7h8-8-8\5-5-|
|--0----0-(0)-0-------0-(0)-0-|-------0---0-------------|
|--0----0-(0)-0-------0-(0)-0-|-------0---0-------------|


   ~~~~~~~~~~~~~~~~~~~~~~~~~~~~~~~~~~~~~~~~~~~~~~~~~~~~~~~~~~~~~~~~~~~~~~~~
   E.  S  +E   E  E.  S  +E   E    E.    S  +E   E  E.     S  +E     E
|-------------------------------|-----------------------------------------|
|-13----------13-----13-(13)----|-13------------13--------13-(13)---------|
|-----13-(13)----13----------13-|-------13-(13)----13---------------13----|
|-------------------------------|-----------------------------------------|
|-------------------------------|-----------------------------------------|
|-------------------------------|-----------------------------------------|
|
|  PM---------------------------------------------------------------------|
|                                                   |-3-|      |---3------|
|  E.  S  +E   E  E.  S  +E   E    E  Q          E  E E E      E  E     E
|-------------------------------|-----------------------------------------|
|-------------------------------|-----------------------------------------|
|-------------------------------|-----------------------------------------|
|-------------------------------|-----------------------------------------|
|--0---0--(0)--0------0--(0)--0-|-----0----------0--5h6-6------6/10----10-|
|--0---0--(0)--0------0--(0)--0-|-----0----------0------------------------|


   \1_______________________________\1________\1_______________
 ~~~~~~~~~~~~~~~~~~~~~~~~~~~~~~~~
   E.   S  +E   E  E.  S  +E   E    H         H
|--------------------------------|----------------------------|
|-13-----------13-----13-(13)----|----------------------------|
|------13-(13)----13----------13-|-13-------------------------|
|--------------------------------|----------------------------|
|--------------------------------|----------------------------|
|--------------------------------|-----------20---------------|
|
|  PM-------------------------------------------------------|
|                                             |--3--| |-3---|
|  E.   S  +E   E  E.  S  +E   E    E   Q  E  E   E E E E E
|--------------------------------|----------------------------|
|--------------------------------|----------------------------|
|--------------------------------|----------------------------|
|--------------------------------|------------7h--8-8-8\5-5---|
|--0----0--(0)--0------0--(0)--0-|------0--0------------------|
|--0----0--(0)--0------0--(0)--0-|------0--0------------------|


  Gtrs I, II
  PM-----------------|
  E. S +E  E Q  Q    W
|------------------|----------*|
|------------------|----------*|
|------------------|----------*|
|------------------|----------*|
|-0--0-(0)-0----0--|-0--------*|
|-0--0-(0)-0----0--|-0--------*|


Duration Legend
---------------
W - whole; H - half; Q - quarter; E - 8th; S - 16th; T - 32nd; X - 64th; a - acciaccatura
+ - note tied to previous; . - note dotted; .. - note double dotted
Uncapitalized letters represent notes that are staccato (1/2 duration)
Irregular groupings are notated above the duration line
Duration letters will always appear directly above the note/fret number it represents the
duration for.  Duration letters with no fret number below them represent rests.  Multi-
bar rests are notated in the form Wxn, where n is the number of bars to rest for.  Low
melody durations appear below the staff

Tablature Legend
----------------
 h   - hammer-on
 p   - pull-off
 b   - bend
 pb  - pre-bend
 r   - bend release (if no number after the r, then release immediately)
 /\  - slide into or out of (from/to "nowhere")
 s   - legato slide
 S   - shift slide
  - natural harmonic
[n]  - artificial harmonic
n(n) - tapped harmonic
 ~   - vibrato
 tr  - trill
 T   - tap
 TP  - trem. picking
 PM  - palm muting
\n/  - tremolo bar dip; n = amount to dip
 \n  - tremolo bar down
 n/  - tremolo bar up
/n\  - tremolo bar inverted dip
 =   - hold bend; also acts as connecting device for hammers/pulls
 <>  - volume swell (louder/softer)
 x   - on rhythm slash represents muted slash
 o   - on rhythm slash represents single note slash

Misc Legend
-----------
 |  - bar
||  - double bar
||o - repeat start
o|| - repeat end
*|  - double bar (ending)
 :  - bar (freetime)
 $  - Segno
 &  - Coda
Tempo markers -  = BPM(8/16=s8/s16), where s8 = swing 8ths, s16 = swing 16ths


***************************************************************************************
* Generated using Power Tab Editor by Brad Larsen - http://powertab.guitarnetwork.org *
***************************************************************************************

            
            
Suggest correction
Creating personal tab
Creating personal tab
You can edit any tab online and save it as your Personal.

You can edit, replace or remove any tab part or add personal notes – all changes will be seen only by you.

Personal tabs can be accessed anytime from any device, even offline.
Learn more »
comments
print report bad tab
guest
You may want to rate the tab now too:
select rating
Wanna post a correction for this tab? Suggest correction