Oops, an error
Loading. Please wait.
We have an official Set To Fail tab made by UG professional guitarists. Check out the tab »
×
14,820 views 1 this week
5 commentsread comments
1 2 3 4 5
x 7
add to favorites
×
Save as Personal and add changes to this tab that will be seen only by you. Learn more ›
×
You can save this tab as Personal to edit and correct it or add notes. All changes will be seen only by you. Learn more »
launch autoscroll
font size
0
reset
how to read this tab
guitar tuner
backing track
0:00
0:00
edit
Autoscroll
slow
fast
+/-
esc
set tempo
stop
Author
This is my firs tab in a very long time. I am positive that this tab is 100% correct. It
not be complete(solo) but it is correct. If you don't believe me, go to youtube and
in mark and willie, set to fail, lesson, or something. they made a video of the song 
very slowly and that is my reference for this tab. I would leave the link but I don't know
I am suppose to. :(

Any questions, feel free to comment or email me at cross_4202@yahoo.com
Key
* obviously a plam mute (also a harmonic when on the lines themselves, but im sure you
figure that out)
\ slide

Intro Riff

|----------------------------------------------------------------------------|
|----------------------------------------------------------------------------|
|----------------------------------------------------------------------------|
|----------------------------------------------------------------------------|
|----------------------------------------------------------------------------|
|2223-2223-2223-2223-2223-2223-2223-2222-3p2-22-3p2-22-3p2-22-3p2-22-3p2-22--|
 ***  ***  ***  ***  ***  ***  ***  ****     **     **     **     **     **

|--------------------------------------------------------------------------|
|--------------------------------------------------------------------------|
|--------------------------------------------------------------------------|
|--------------------------------------------------------------------------|
|--------------------------------------------------------------------------|
|3p2-22-3p2-22 3p2-22-2223-2223-2223-2223-2223-2223-2223-2222-3p2-22-3p2-22|
     **     **     ** ***  ***  ***  ***  ***  ***  ***  ****     **     **


|--------------------------------------------------------------------------|
|--------------------------------------------------------------------------|
|--------------------------------------------------------------------------|
|--------------------------------------------------------------------------|
|--------------------------------------------------------------------------|
|3p2-22-3p2-22-22222222----------------------------------------------------|
     **     **

Chorus Riff

|--------------------------------------------------------------------------|
|--------------------------------------------------------------------------|
|--------------------------------------------------------------------------|
|--------------------------------------------------------------------------|
|--------------------------------------------------------------------------|
|-2-3-0-5~---2-2-2-3-0-5~---2-2-2-3-0-5~--2-2-2-2-2-2-0-2-2-2--3-2-0-7~----|

|--------------------------------------------------------------------------|
|--------------------------------------------------------------------------|
|--------------------------------------------------------------------------|
|------------------------------------------------------7\------------------|
|------------------------------------------------------5\------------------|
|2-2-2-3-0-5~--2-2-2-3-0-5~--2-2-2-2-2-2-0-2-2-2--3-2-0-----2-2-2-3-0-5~---|
                                                  * * *

|--------------------------------------------------------------------------|
|--------------------------------------------------------------------------|
|--------------------------------------------------------------------------|
|--------------------------------------------------------------------------|
|--------------------------------------------------------------------------|
|2-2-2-3-0-5~--2-2-2-2-2-2-0-2-2-2--3-2-0-3~--2-2-2-3-0-3~--2-2-2-3-5------|


|--------------------------------------------------------------------------|
|--------------------------------------------------------------------------|
|--------------------------------------------------------------------------|
|--------------------------------------------------------------------------|
|--------------------------------------------------------------------------|
|-222-333-555-777----------------------------------------------------------|
  *** *** *** ***


Verse Riff

|--------------------------------------------------------------------------|
|--------------------------------------------------------------------------|
|--------------------------------------------------------------------------|
|--------------------------------------------------------------------------|
|--------------------------------------------------------------------------|
|2-3-0-5~-2223-2223-2223-2223-2223-2223--2-3-0-7~--2223-2223-2223-2223-2223|
          ***  ***  ***  ***  ***  ***             ***  ***  ***  ***  ***

|--------------------------------------------------------------------------|
|--------------------------------------------------------------------------|
|--------------------------------------------------------------------------|
|--------------------------------------------------------------------------|
|--------------------------------------------------------------------------|
|-2223--2-3-0-5~--2223-2223-2223-2223-2223-2223--2-3-0-7~--2223-2223-2223--|
  ***             ***  ***  ***  ***  ***  ***             ***  ***  ***

|--------------------------------------------------------------------------|
|--------------------------------------------------------------------------|
|--------------------------------------------------------------------------|
|--------------------------------------------------------------------------|
|----------5--------5---5--------------------------------------------------|
|--22--------2-0-2----2---2--5-4-3-0-3-0-6---------------------------------|
   **


 Bridge

|--------------------------------------------------------------------------|
|--------------------------------------------------------------------------|
|--------------------------------------------------------------------------|
|--------------------------------------------------------------------------|
|--------------------------------------------------------------------------|
|-000-10-0-12---0000-3*--000--7-3-7--6-2-0-1-5-1-0-1-----------------------|
  ***    *      ****     ***

|--------------------------------------------------------------------------|
|--------------------------------------------------------------------------|
|--------------------------------------------------------------------------|
|--------------------------------------------------------------------------|
|--------------------------------------------------------------------------|
|-000-10-0-12---0000-3*--000--7-3-7--6-2-0-1-5-1-0-1-----------------------|
  ***    *      ****     ***

|--------------------------------------------------------------------------|
|--------------------------------------------------------------------------|
|--------------------------------------------------------------------------|
|--------------------------------------------------------------------------|
|--------------------------------------------------------------------------|
|-000-10-0-12--000-10-0-12--000--7-3-7--000--6-5-3-0-3---------------------|
  ***    *     ***    *     ***         ***

|--------------------------------------------------------------------------|
|--------------------------------------------------------------------------|
|--------------------------------------------------------------------------|
|--------------------------------------------------------------------------|
|--------------------------------------------------------------------------|
|-000-10-0-12--000-10-0-12---222-333-555-777-------------------------------|
  ***    *     ***    *      *** *** *** ***

breakdown before the solo

|---------------------------------------------------------------------|
|---------------------------------------------------------------------|
|---------------------------------------------------------------------|   x4
|---------------------------------------------------------------------|
|---------------------------------------------------------------------|
|-222222000022222200002222220000-2-5-2-5-7-5-2-5----------------------|
  ****************************** * * * * * * * *


 (solo)

The order goes:

INTRO
CHORUS
VERSE
BRIDGE
CHORUS
VERSE
BRIDGE
CHORUS
BREAKDOWN
SOLO
BRIDGE
CHORUS
CHORUS

            
            
Suggest correction
Creating personal tab
Creating personal tab
You can edit any tab online and save it as your Personal.

You can edit, replace or remove any tab part or add personal notes – all changes will be seen only by you.

Personal tabs can be accessed anytime from any device, even offline.
Learn more »
comments
print report bad tab
5 comments total. Showing first comments.
0 reply
Sgt.Seca 36 Apr 23, 2009 12:11 PM

I didnt realize that I put down a couple wrong things here, here is the corrections

for the end of the chorus riff and the end of the breakdown it is supposed to go

222-333-444-555

222-333-555-777

and the part in the bridge goes

6-2-0-1-5-1-0-3

instead of

6-2-0-1-5-1-0-1

other than that, this tab should be 100%

0 reply
Sgt.Seca 36 Apr 23, 2009 12:13 PM

the correction for the end of the chorus riff and the end of the breakdown riff is supposed to be

222-333-444-555

INSTEAD OF

222-333-555-777
sorry for the confusion if there was any. :P

0 reply
crazybasser42! 71 May 05, 2009 05:50 PM

actually that part in the bridge goes
6-3-0-3-5-3-0-3
and the one part inthe main riff when you say it goes
0-2-2-2-3-2-0-7-
the 7 should be an 8. other than that, okay tab.

guest
You may want to rate the tab now too:
select rating
Wanna post a correction for this tab? Suggest correction