Oops, an error
Loading. Please wait.
We have an official Walk With Me In Hell tab made by UG professional guitarists. Check out the tab »
×
34,730 views 33 this week
3 commentsread comments
1 2 3 4 5
x 7
add to favorites
×
Save as Personal and add changes to this tab that will be seen only by you. Learn more ›
×
You can save this tab as Personal to edit and correct it or add notes. All changes will be seen only by you. Learn more »
launch autoscroll
font size
0
reset
guitar tuner
backing track
0:00
0:00
edit
Autoscroll
slow
fast
+/-
esc
set tempo
stop
-------------------------------------------------------------------------------
	       Walk With Me In Hell - Lamb of God
-------------------------------------------------------------------------------

Tabbed By : M.Sandridge	
e-mail: M.Sandridge@rocketmail.com

Tuning:DADG

Note: If you see a x6 or x2 inbetween two sections, those two sections go
together and are to be played together that many times. Otherwise they will
be to the right of the section.



Intro - With distortion

G|----------------------------------------------------------------|
D|----------------------------------------------------------------|  
A|----------------------------------------------------------------|   
D|-0----0-0----0-0--0-0--3--0----0-0----0-0--0-0--10--8----8-8----|   
  								      
G|----------------------------------------------------------------|   
D|----------------------------------------------------------------|  
A|----------------------------------------------------------------|   
D|-3333--3333--3333--8----8-8----8-8--8-8--10---------------------|

G|--------------------------------------------------------|
D|--------------------------------------------------------|
A|--------------------------------------------------------|
D|-0----0-0----0----0-0--3--0----0-0----0----0-0--10------|

G|--------------------------------------------------------|
D|--------------------------------------------------------|
A|--------------------------------------------------------|
D|-8----8-8----3-3--3-3--3----8----8-8----8-8--8-8--10v---|



Fast Riff - Post Verse

G|---------------------------------------------------|
D|---------------------------------------------------|  x3
A|---------------------------------------------------|
D|-0-10-12-0-10-12-0-10-12-13-12-10-0-10-12-13-------|

G|---------------------------------------------------|
D|---------------------------------------------------|
A|---------------------------------------------------|
D|-0-12-10--0-10-8--0-8-7--0-7-5--0-5-3-1------------|

G|---------------------------------------------------|
D|---------------------------------------------------|  x3
A|---------------------------------------------------|
D|-0-10-12-0-10-12-0-10-12-13-12-10-0-10-12-13-------|

G|---------------------------------------------------|
D|---------------------------------------------------|
A|---------------------------------------------------|
D|-0-12-10--0-10-8--0-8-7--0-7-5--0-5-3-1------------|



Verse

G|---------------------------------------------------|
D|---------------------------------------------------|
A|---------------------------------------------------|
D|-0-0-0-0-0-0---0-0-0-0--1-0--0-0-0-0-0-0-----------|


G|---------------------------------------------------|
D|---------------------------------------------------|
A|---------------------------------------------------|
D|-0-12-10--0-10-8--0-8-7--0-7-5--0-5-3-1------------|

G|---------------------------------------------------|
D|---------------------------------------------------|
A|---------------------------------------------------|
D|-0-0-0-0-0-0---0-0-0-0--1-0--0-0-0-0-0-0-----------|

G|---------------------------------------------------|
D|---------------------------------------------------|
A|---------------------------------------------------|
D|-0-12-10--0-10-8--0-8-7--0-7-5--0-5-3-1------------|

G|-----------------------------------------------------------------------|
D|-----------------------------------------------------------------------|
A|-----------------------------------------5-3-1-3-1-0-1-0---0-----------|
D|-6-6-6-6-6-6-6-6--7-6-7-6--6-6-6-6-6---6-----------------5---3-5-3-1---|

G|---------------------------------------------------|
D|---------------------------------------------------|
A|---------------------------------------------------|
D|0-0-0-0-0-0--0-0-0-0--1--0-0-0-0-0-0-0---pause-----|



Verse Part 2

G|-------------------------------------------------------------------------|
D|-------------------------------------------------------------------------|
A|-------------------------------------6-5---------------------------------|
D|-0-0-0-0-1-0-0-0--0-0-0-0-1-0-0-0-0------0--5-4-0--5-7-8-7-5-7-5-4-5-----|

G|-------------------------------------------------------------------------|
D|-------------------------------------------------------------------------|
A|------------------------------------6-5----------------------------------|
D|0-0-0-0-1-0-0-0--0-0-0-0-1-0-0-0-0------0--5-4--0--5-7-8-7-5--12-10-8-10-|

G|---------------------------------------------|
D|---------------------------------------------|
A|---------------------------------------------|
D|-8-8-8-8-8-8--8-8-8-8--10-8-10-8--8-8-8-8-8--|

G|---------------------------------------------|
D|---------------------------------------------|
A|---------------------------------------------|
D|-12-10-8-10-8-7-8-7-5-7-5-3-5-3-1------------|



Chorus

G|---------------------------------------------------------------------------|
D|---------------------------------------------------------------------------|
A|----------------------------5------5---------------------------------------|
D|-0--0-0-0--0--0-0-0--0--0-0----0-0----0-0-0-3333---------------------------|

G|---------------------------------------------------------------------------|
D|---------------------------------------------------------------------------|
A|----------------------------5-----5-----5-----5----------------------------|
D|-0--0-0-0--0--0-0-0--0--0-0---0-0---0-0---0-0---0-0-10101010---------------|
					   Tens not ones ^

G|---------------------------------------------------------------------------|
D|---------------------------------------------------------------------------|
A|---------------------------------------------------------------------------|
D|-8--8--8--8--8888--8--8--8--8--10101010--8--8--8--8--8888----pause---------|
        		Tens not ones ^


Verse

G|-------------------------------------------------------------------------|
D|-------------------------------------------------------------------------|
A|-------------------------------------6-5---------------------------------|
D|0-0-0-0-1-0-0-0--0-0-0-0-1-0-0-0-0------0---5-4-0-5-7-8-7-5-7-5-4-5------|

G|-------------------------------------------------------------------------|
D|-------------------------------------------------------------------------|
A|------------------------------------6-5----------------------------------|
D|0-0-0-0-1-0-0-0--0-0-0-0-1-0-0-0-0------0-5-4-0--5-7-8-7-5--12-10-8-10---|

G|---------------------------------------------|
D|---------------------------------------------|
A|---------------------------------------------|
D|-8-8-8-8-8-8--8-8-8-8--10-8-10-8--8-8-8-8-8--|

G|---------------------------------------------|
D|---------------------------------------------|
A|---------------------------------------------|
D|-12-10-8-10-8-7-8-7-5-7-5-3-5-3-1------------|

G|---------------------------------------------------|
D|---------------------------------------------------|
A|---------------------------------------------------|
D|0-0-0-0-0-0--0-0-0-0--1--0-0-0-0-0-0-0---pause-----|



Verse - Heavy Part

G|---------------------------------------------------------|
D|---------------------------------------------------------|
A|-------------------6-5-----------------------------------|
D|0-0-0001-0-1000-0------0-5-4-0-5-7-8-7-5-7-5-4-5---------|

G|---------------------------------------------------------|
D|---------------------------------------------------------|
A|-------------------6-5-----------------------------------|
D|0-0-0001-0-1000-0------0-5-4-0-5-7-8-7-5--12-10-8-10-----|

G|---------------------------------------------|
D|---------------------------------------------|
A|---------------------------------------------|
D|-8-8-8-8-8-8--8-8-8-8--10-8-10-8--8-8-8-8-8--|

G|---------------------------------------------|
D|---------------------------------------------|
A|---------------------------------------------|
D|-12-10-8-10-8-7-8-7-5-7-5-3-5-3-1------------|



Chorus

G|---------------------------------------------------------------------------|
D|---------------------------------------------------------------------------|
A|----------------------------5------5---------------------------------------|
D|-0--0-0-0--0--0-0-0--0--0-0----0-0----0-0-0-3333---------------------------|

G|---------------------------------------------------------------------------|
D|---------------------------------------------------------------------------|
A|----------------------------5-----5-----5-----5----------------------------|
D|-0--0-0-0--0--0-0-0--0--0-0---0-0---0-0---0-0---0-0-10101010---------------|
					   Tens not ones ^

G|---------------------------------------------------------------------------|
D|---------------------------------------------------------------------------|
A|---------------------------------------------------------------------------|
D|-8--8--8--8--8888--8--8--8--8--10101010--8--8--8--8--8888----pause---------|
			Tens not ones ^


Breakdown

G|-----------------------------------------------------------------|
D|-----------------------------------------------------------------|
A|-----------------------------------------------------------------|
D|0-0--0-0-0-0--0--0-0--0-0-0-0--0--0-0--0-0-0-0--0--0-0---0-0-0---|
                                                                   x6
G|-------------------|						
D|-------------------|						
A|-------------------|
D|3-1-4-3-1-4-3-1----|



Guitar Solo Part

G|---------------------------------------------------------------------------|
D|---------------------------------------------------------------------------|
A|---------------------------------------------------------------------------|
D|-0-0-0-0-0-0-0-0-0-0-0-0-0-0-0-0--7-7-7-7-7-7-7-7-7-7-7-7-7-7-7-7--3-3-3-3-|
                                                                             x6
G|---------------------------------------------------------------------------|
D|---------------------------------------------------------------------------|
A|---------------------------------------------------------------------------|
D|-6-6-6-6-6-6-6-6-6-6-6-6-7-7-7-7-3-3-3-3-3-3-3-3-3-3-3-3-5-5-5-5-----------|



Outro

G|---------------------------------------------------------------------------|
D|---------------------------------------------------------------------------|
A|---------------------------------------------------------------------------|
D|-000000-0-0-000000-0-0-777777-7-7-77777-7-7-333333-6-6-666666-6-6-777777---|

G|---------------------------------------------------------------------------|
D|---------------------------------------------------------------------------|
A|---------------------------------------------------------------------------|
D|-3-3-333333-5-5------------------------------------------------------------|

G|---------------------------------------------------------------------------|
D|---------------------------------------------------------------------------|
A|---------------------------------------------------------------------------|
D|-000000-0-0-000000-0-0-777777-7-7-77777-7-7-333333-6-6-666666-6-6-777777---|

G|---------------------------------------------------------------------------|
D|---------------------------------------------------------------------------|
A|---------------------------------------------------------------------------|
D|-33-3-33-3-55-5------------------------------------------------------------|

G|---------------------------------------------------------------------------|
D|---------------------------------------------------------------------------|
A|---------------------------------------------------------------------------|
D|-0-0-0-0-0-0-0-0-0-0-0-0-0-0-0-0--7-7-7-7-7-7-7-7-7-7-7-7-7-7-7-7--3-3-3-3-|
                                                                             x2
G|---------------------------------------------------------------------------|
D|---------------------------------------------------------------------------| 
A|---------------------------------------------------------------------------|
D|-6-6-6-6-6-6-6-6-6-6-6-6-7-7-7-7-3-3-3-3-3-3-3-3-3-3-3-3-5-5-5-5-----------|


 There you have it. It may not be perfect, but after seeing the other tabs and
listening to the bass alone on the producer edition, I think this is a much more
accurate version than anything that is up now.

 Any questions email if needed.



| /  slide up
| \  slide down
| h  hammer-on
| p  pull-off
| ~  vibrato
| +  harmonic
| x  Mute note
===============================================================================


            
            
Suggest correction
Creating personal tab
Creating personal tab
You can edit any tab online and save it as your Personal.

You can edit, replace or remove any tab part or add personal notes – all changes will be seen only by you.

Personal tabs can be accessed anytime from any device, even offline.
Learn more »
comments
print report bad tab
3 comments total.
0 reply
dannyloughran 430 Sep 17, 2008 02:08 PM

It basically correct, but I dont know why every tab on here has high notes when playing this bit.
G|---------------------------------|
D|--------5-4---5-7-8-7-5-7-5-4-5--|
A|----6-5--------------------------|
D|-0-------------------------------|

If you tabbed this using the producer edition of the bass track then you can clearly hear him playing low notes here.
John Campbell once said in an interview that when the guitars go high, he goes low. It is easily heard on the bass track though.

I was going to re-tab it myself, but that was before I seen this tab. I didnt see the point in me doing it if its only this bit that will be different:
*Correction*
G|---------------------------------|
D|---------------------------------|
A|----6-5--------------------------|
D|-0------5-4---5-7-8-7-5-7-5-4-5--|

5 stars anyway =]

0 reply
M.Sandridge 41 Sep 30, 2008 09:46 AM

Thanks for the input. I totally agree with you on the low notes. I hadn't noticed that I had tabbed it out the way the guitars are doing it until after you commented on it. I think part of the reason was just because I was hurried while doing the final bit of it and looked over it. Thanks for noticing.

0 reply
julezroulette1 10 Dec 15, 2015 02:44 PM

*correction*
G|----------------------------------|
D|----------------------------------|
A|----------------------------------|
D|-0-1-0-0-5-4-0-5-7-8-7-5-7-5-4-5--|

guest
You may want to rate the tab now too:
select rating
Wanna post a correction for this tab? Suggest correction