Oops, an error
Loading. Please wait.

What Ive Become bass

version 1
version 1

Whole song

1,698 views 1 this week
1 commentread comment
1 2 3 4 5
x 4
add to favorites
×
Save as Personal and add changes to this tab that will be seen only by you. Learn more ›
×
You can save this tab as Personal to edit and correct it or add notes. All changes will be seen only by you. Learn more »
launch autoscroll
font size
0
reset
guitar tuner
edit
Autoscroll
slow
fast
+/-
esc
set tempo
stop
Author
Difficulty
Lamb of God - What I've Become

Drop D Tuning

Fill 1 x1
  q  q  q  q
|-------------|
|-------------|
|-------------|
|-3--2--6--5--|

Riff 1 x4
  e e e e ss e e e   e ss e e ss e e e   e ss e e ss e ss e   q  q  q  q
|------------------|-------------------|--------------------|-------------|
|------------------|-------------------|--------------------|-------------|
|------------------|-------------------|--------------------|-------------|
|-0-0-0-0-00-0-0-0-|-0-00-0-0-00-0-0-0-|-0-00-0-0-00-0-00-0-|-3--2--6--5--|

Fill 1 x1

Riff 2 x2
  e e e e e e e e   e e e e e e e e   e e e e e e e e   e e e e e e e e
|-----------------|-----------------|-----------------|-----------------|
|-----------------|-----------------|-----------------|-----------------|
|-----------------|-----------------|-----------------|-----------------|
|-3-5-3-5-3-5-3-5-|-6-5-4-3-0-1-3-5-|-3-5-3-5-3-5-3-5-|-6-5-4-3-0-1-3-5-|

  e e e e e e e e   e e e e e e e e   e e e e e e e e   e e e e e e e e
|-----------------|-----------------|-----------------|-----------------|
|-----------------|-----------------|-----------------|-----------------|
|-----------------|-----------------|-----------------|-5-4-----4-3-----|
|-3-5-3-5-3-5-3-5-|-6-5-4-3-0-1-3-5-|-3-5-3-5-3-5-3-5-|-----7-6-----6-5-|

Riff 1 x4

Riff 2 x2

Riff 3A x2
  ss e e  e  ss e e  e    ss e e  e  ss e e  e
|-----------------------|-----------------------|
|-----------------------|-----------------------|
|-----------------------|-----------------------|
|-00-0-12-12-00-0-12-12-|-00-0-12-12-00-0-12-12-|

Riff 3B x3
  ss e e e ss e e e   ss e e e ss e e e   ss e e e ss e e e   ss e e e ss e e e
|-------------------|-------------------|-------------------|-------------------|
|-------------------|-------------------|-------------------|-------------------|
|------5-5------5-5-|------5-5------5-5-|------5-5------5-5-|------5-5------5-5-|
|-00-0-----00-0-----|-00-0-----00-0-----|-00-0-----00-0-----|-00-0-----00-0-----|

  ss e e e ss e e e   ss e e e ss e e e   ss e e e ss e e e   ss e e e ss e e e
|-------------------|-------------------|-------------------|-------------------|
|-------------------|-------------------|-------------------|-------------------|
|-------------------|-------------------|-------------------|-------------------|
|-00-0-6-6-00-0-6-6-|-00-0-6-6-00-0-6-6-|-00-0-6-6-00-0-6-6-|-00-0-6-6-00-0-6-6-|

Riff 3A x2

Fill 2 x1
  ss e e  e  ss e e  e    ss e e  e  ss e e  e    ss e e  e  ss e e e   e e e e e e e e
|-----------------------|-----------------------|---------------------|-----------------|
|-----------------------|-----------------------|---------------------|-----------------|
|-----------------------|-----------------------|---------------------|---------3---3-6-|
|-00-0-12-12-00-0-12-12-|-00-0-12-12-00-0-12-12-|-00-0-12-12-00-0-6-5-|-3-4-5-6---6-----|

Riff 4 x4
  e e e e e e e e   ss e e e e e e e   ss e e e e e e e   e e e e e e e e
|-----------------|------------------|------------------|-----------------|
|-----------------|------------------|------------------|-----------------|
|-5---------------|------------------|------------------|---------3---3-6-|
|---0-0-0-0-0-0-0-|-10-0-0-0-0-0-0-0-|-10-0-0-0-0-0-6-5-|-3-4-5-6---6-----|

Riff 5A x2
  Q e e e e Q    e e e e Q  e e   Q e e e e Q    e e e e e e e e
|--------------|----------------|--------------|-----------------|
|--------------|----------------|--------------|-----------------|
|--------------|----------------|--------------|---------1-------|
|---0-1-0-0----|-0-0-1-1----0-1-|---0-1-0-0----|-0-1-0-0---0-1-3-|

Riff 5B x5
  e e e e e e e e   e e e e e e e e   e e e e e e e e   e e e e e e e e
|-----------------|-----------------|-----------------|-----------------|
|-----------------|-----------------|-----------------|-----------------|
|-5-5---------5-5-|---------5-5-----|-3-3---------1-1-|---------0-------|
|-----0-1-0-0-----|-0-0-1-1-----0-1-|-----0-1-0-0-----|-0-1-0-0---0-1-3-|

Fill 3A x1                                              ( 3 ) ( 3 )
  e e e e e e e e   e e e e e e e e   e e e e e e e e   e e e e e e e E Q
|-----------------|-----------------|-----------------|---------------------|
|-----------------|-----------------|-----------------|---------------------|
|-5-5---------5-5-|---------5-5-----|-3-3---------1-1-|-------------0-------|
|-----0-1-0-0-----|-0-0-1-1-----0-1-|-----0-1-0-0-----|-3-0-0-0-0-0---------|

Riff 5B x3

Fill 3B x1                                                                (  3  )
  e e e e e e e e   e e e e e e e e   e e e e e e e e   e e e e e e e e   q  q  Q  H
|-----------------|-----------------|-----------------|-----------------|--------------|
|-----------------|-----------------|-----------------|-----------------|--------------|
|-5-5---------5-5-|---------5-5-----|-3-3---------1-1-|---------0-------|--------------|
|-----0-1-0-0-----|-0-0-1-1-----0-1-|-----0-1-0-0-----|-0-1-0-0---0-1-3-|-0--0---------|

            
            
Suggest correction
Creating personal tab
Creating personal tab
You can edit any tab online and save it as your Personal.

You can edit, replace or remove any tab part or add personal notes – all changes will be seen only by you.

Personal tabs can be accessed anytime from any device, even offline.
Learn more »
comments
print report bad tab
1 comment total.
0 reply
cheezniplord 10 Dec 31, 2008 02:02 PM

riff 3a and the begining of 3b are the exact same dude

guest
You may want to rate the tab now too:
select rating
Wanna post a correction for this tab? Suggest correction