Oops, an error
Loading. Please wait.

Wrath album tab

26,796 views 12 this week
4 commentsread comments
1 2 3 4 5
x 6
add to favorites
×
Save as Personal and add changes to this tab that will be seen only by you. Learn more ›
×
You can save this tab as Personal to edit and correct it or add notes. All changes will be seen only by you. Learn more »
launch autoscroll
font size
0
reset
how to read this tab
guitar tuner
edit
Autoscroll
slow
fast
+/-
esc
set tempo
stop
Like my other album tab
im just doing this so i can have them all in one place
but this time
i promise i picked only the top rated
so this should be better
again
i take no credit except for converging them
please comment and vote!

-Jake

Tabbers:
-Soothsayer92
-Unregistered
-Sgt.Seca
-Unregistered
-Aric666
-Old Rasputin
-Tyler Marley
-guitartilldeath
-TTElectro
-a guitar's life
-Lucid_Interval
-Dimerah(everything except coda for reclamation)

===============================================================

                    LAMB OF GOD - WRATH

===============================================================

1. The Passing

1st Part (acoustic) 2x
|------------------------------------------------------------------|
|------------------------------------------------------------------|
|--------------------------------------4------------0--------------|
|---------2---4-5--4h5p4--2---------------4------------4-----------|
|------2-------------------------------------2------------2--------|
|---2-------------------------2-----------------2------------2-----|

|------------------------------------------------------------------|
|------------------------------------------------------------------|
|------------------------------------------------------------------|
|---------2---4-5--4h5p4--5-4------0-------------------------------|
|------2-----------------------------------------------------------|
|---2--------------------------0-----------------------------------|

2nd Part (acoustic)
|-----------------------0-----------------------------------|
|------------0------------0------0--------------------------|
|----------2---2------------2------2------------------------|
|--------0-------0------------0------0----------------------|
|------3-----------3-------------------3--------------------|
|----3------------------------------------------------------|

|-----------------------------------------------------------|
|-----------------------------------------------------------|
|-----5s7-----7s9-----9s10---10s9----9s7--------------------|
|-----------------------------------------------------------|
|-----3s5-----5s7-----7s8-----8s7----7s5--------------------|
|---0-------0-------0-------0------0------------------------|

|-----------------------0-----------------------------------|
|------------0------------0------0--------------------------|
|----------2---2------------2------2------------------------|
|--------0-------0------------0------0----------------------|
|------3-----------3-------------------3--------------------|
|----3------------------------------------------------------|

|--------------------------------------------------------|
|--------------------------------------------------------|
|--------------------------------------------------------|
|--2-3-2-3-2-3-2-3-2-3-2-3-2-3--0------------------------|
|--0-1-0-1-0-1-0-1-0-1-0-1-0-1--0------------------------|
|-------------------------------0------------------------|

3rd Part (electric) 2x                     3x
|--12~~~----------------| |-------------------| |-------------------|
|-----------12----10~~--| |--12--10--8--7--5--| |--10~~---8--7------|
|-----------------------| |-------------------| |---------------7---|
|-----------------------| |---9---7--5--4--2--| |-------------------|
|-----------------------| |-------------------| |-------------------|
|-----------------------| |-------------------| |-------------------|

4th Part (solo) 2x
|------------------------------------------------------------------|
|---11b--9------9--11--9----11--11b--9------9--11--9--11--11~~-----|
|-----------11--------------------------11-------------------------|
|------------------------------------------------------------------|
|------------------------------------------------------------------|
|------------------------------------------------------------------|

0utro
|--------------------------------------------------------------------------|
|12--10--8--7--5----12--10--8--7--5----12--10--8--7--5----10~~--8--7-------|
|--------------------------------------------------------------------7--9~~|
|-9---7--5--4--2-----9---7--5--4--2-----9---7--5--4--2---------------------|
|--------------------------------------------------------------------------|
|--------------------------------------------------------------------------|


2. In Your Words

 Riff #1

e-|-----------------------------------------------|
b-|-----------------------------------------------|
g-|-----------------------------------------------|
d-|-----------------------------------------------|
a-|---------------------------------------11------|
d-|-0-0-12-0-12-0-12-0-12-0-12-0-12-0-12-0--12----|
    . .    .    .    .    .    .    .    .

e-|--------------------------------------|
b-|--------------------------------------|
g-|--------------------------------------|
d-|--------------------------------------|
a-|----------------------12------10-11-8-|
d-|-0-0-12-0-12-0-12-0-10--10-9-8--------|
    . .    .    .    .

e-|----------------------------------------------------------------------|
b-|----------------------------------------------------------------------|
g-|----------------------------------------------------------------------|
d-|--------------------------------------------------------------5-4-----|
a-|---------------------------------------11----7-----5-6-3---------6-5--|
d-|-0-0-12-0-12-0-12-0-12-0-12-0-12-0-12-0--12-5-5-4-3------3-2-1------5-|
    . .    .    .    .    .    .    .    .

you must play the above riff 4 times, but on the 2nd time, stop briefly on the part below

e-|---------------------------------------------------------|
b-|---------------------------------------------------------|
g-|---------------------------------------------------------|
d-|---------------------------------------------------------|
a-|---------------------------------------11----7-----5-6-3-|*PAUSE*
d-|-0-0-12-0-12-0-12-0-12-0-12-0-12-0-12-0--12-5-5-4-3------|
    . .    .    .    .    .    .    .    .

then it goes into this riff


Riff#2

e-|-------------------------------------------------------------|
b-|-------------------------------------------------------------|
g-|-------------------------------------------------------------|
d-|-------------------------------------------------------------|
a-|-----12p0-12p------12p0--------------------11-11-11-11-11-11-|
d-|-0-0-0----0----0-0-0----000000000000000000-0--0--0--0--0--0--|
    . .           . .      ..................

e-|----------------------------------------------------------------|
b-|----------------------------------------------------------------|
g-|----------------------------------------------------------------|
d-|------------------------------2----------5-------------3--------|
a-|-----12p0-12p0-----12p0------3-3-5-5-5-5-5-7p5-5-5-3-3-3--3-3-3-|
d-|-0-0-0----0----0-0-0----0-0-5----5-5-5-5-5-----5-5-3-3-3--2-2-2-|
    . .           . .      . .      . . . .       . . . .    . .

e-|---------------------------------------------------------------|
b-|---------------------------------------------------------------|
g-|---------------------------------------------------------------|
d-|---------------------------------------------------------------|
a-|-----12p0-12p0------12p0--------------------11-11-11-11-11-11--|
d-|-0-0-0----0-----0-0-0----000000000000000000-0--0--0--0--0--0---|
    . .           . .      ..................

e-|------------------------------------------------------------------------------------|
b-|------------------------------------------------------------------------------------|
g-|------------------------------------------------------------------------------------|
d-|------------------------------------------------------------------------------------|
a-|-----12p0--12p0-----12p0-------------------------------------4----------------------|
d-|-0-0-0-----0----0-0-0----000000-3p2p1-3p2p1p0-3h6p3p0-5-6-5-6--    . .           .--| 
    ......

Riff#3

e-|-------------------------------------------------------------------------|
b-|-------------------------------------------------------------------------|
g-|-------------------------------------------------------------------------|
d-|----------------------------------12-12-12-12-12-12----12-12-12-12-12-12-|
a-|-0-0---------0-0---------------00-9--9--9--9--9--9--00-8--8--8--8--8--8--|
d-|-0-0-3p0-3p0-0-0-3p0--00000000-00-0--0--0--0--0--0--00-0--0--0--0--0--0--|
    . .         . .      ........ ..                   ..

e-|------------------------------------------------------------------------|
b-|------------------------------------------------------------------------|
g-|------------------------------------------------------------------------|
d-|----------------------------------8--8--8--8--8--8-----7--7--7--7--7--7-|
a-|-0-0---------0-0---------------00-6--6--6--6--6--6--00-5--5--5--5--5--5-|
d-|-0-0-3p0-3p0-0-0-3p0--00000000-00-0--0--0--0--0--0--00-0--0--0--0--0--0-|
    . .         . .      ........ ..                   ..
play above 2 times

Riff #4

e-|------------------------------------------------------------|
b-|------------------------------------------------------------|
g-|------------------------------------------------------------|
d-|-8-8-8-8-8-8-8-8-8-8-8-8-8-8--5-5-5-5-5-5-5-x---------------|
a-|-8-8-8-8-8-8-8-8-8-8-8-8-8-8--5-5-5-5-5-5-5-x-3-3-3-x-3-3-3-|
d-|-8-8-8-8-8-8-8-8-8-8-8-8-8-8--5-5-5-5-5-5-5-x-3-3-3-x-2-2-2-|

e-|---------------------------------------------------------|
b-|---------------------------------------------------------|
g-|---------------------------------------------------------|then
d-|---------------------------------------------------------|start
a-|-------------------------------------------------7-7-7-7-|over
d-|-0-0-0-0-0-0-0-0-0-1-1-1-1p0-0-0-0-0-0-0-0-0-0-0-7-7-7-7-|
    . .   .   .   .             . .   .   .   .   .

on the second ending go back to riff 1 and repeat the cycle of riffs.

once you come back to Riff #1 for the second time, do it twice, and do the stop you do
the begining of the song, and go into this riff.

Riff #5

e-|------------------------|
b-|------------------------|
g-|------------------------|
d-|------------------------|
a-|-0000-0-0-0000-0-0-0000-|
d-|-0000-0-0-0000-0-0-0000-|


Riff #6 (played behind riff 5)

e-|--------------------------------------------------------------------|
b-|--------------------------------------------------------------------|
g-|--------------------------------------------------------------------|
d-|-3/444444444444\333333333333/444444444444\333333\111111/444444444444
a-|--------------------------------------------------------------------|
d-|--------------------------------------------------------------------|
    ...................................................................
e-|----------------------------------|
b-|----------------------------------|
g-|----------------------------------|
d-|-\333333333333/444444/777777777-7-|
a-|----------------------------------|
d-|----------------------------------|
     ............................. .


Riff #7

e-|--------------------------------------------------------------------------|
b-|--------------------------------------------------------------------------|
g-|-11-11-11-11-11-11-11-11-11-11-11-11-11-11-11-11-11-11-11-11-11-11-11-11\-|
d-|--x--x--x--x--x--x--x--x--x--x--x--x--x--x--x--x--x--x--x--x--x--x--x--x--|
a-|--9--9--9--9--9--9--9--9--9--9--9--9--9--9--9--9--9--9--9--9--9--9--9--9\-|
d-|--0--0--0--0--0--0--0--0--0--0--0--0--0--0--0--0--0--0--0--0--0--0--0--0--|

e-|-------------------------------------------------------------------------|
b-|-------------------------------------------------------------------------|
g-|-10-10-10-10-10-10-10-10-10-10-10-10-10-10-10-10-10-10-10-10-10-10-10-10-|
d-|--x--x--x--x--x--x--x--x--x--x--x--x--x--x--x--x--x--x--x--x--x--x--x--x-|
a-|--8--8--8--8--8--8--8--8--8--8--8--8--8--8--8--8--8--8--8--8--8--8--8--8-|
d-|--0--0--0--0--0--0--0--0--0--0--0--0--0--0--0--0--0--0--0--0--0--0--0--0-|

e-|--------------------------------------------------------------------------|
b-|--------------------------------------------------------------------------|
g-|-11-11-11-11-11-11-11-11-11-11-11-11-11-11-11-11-11-11-11-11-11-11-11-11\-|
d-|--x--x--x--x--x--x--x--x--x--x--x--x--x--x--x--x--x--x--x--x--x--x--x--x--|
a-|--9--9--9--9--9--9--9--9--9--9--9--9--9--9--9--9--9--9--9--9--9--9--9--9\-|
d-|--0--0--0--0--0--0--0--0--0--0--0--0--0--0--0--0--0--0--0--0--0--0--0--0--|

e-|--------------------------------------------------------------------------|
b-|--------------------------------------------------------------------------|
g-|--10-10-10-10-10-10-10-10-10-10-10-10-14-14-14-14-14-14-14-14-14-14-14-14-|
d-|--x--x--x--x--x--x--x--x--x--x--x--x--x--x--x--x--x--x--x--x--x--x--x--x--|
a-|--8--8--8--8--8--8--8--8--8--8--8--8--12-12-12-12-12-12-12-12-12-12-12-12-|
d-|--0--0--0--0--0--0--0--0--0--0--0--0--0--0--0--0--0--0--0--0--0--0--0--0--|

Riff #8

e-|----------------------------------------------------------|
b-|----------------------------------------------------------|
g-|-9-9-9-9-9-9--7-7-7-7-7-7-7-7-7-7-7-7--11-11-11-11-11-11--|
d-|-x-x-x-x-x-x--x-x-x-x-x-x-x-x-x-x-x-x---x--x--x--x--x--x--|
a-|-7-7-7-7-7-7--5-5-5-5-5-5-5-5-5-5-5-5---9--9--9--9--9--9--|
d-|-0-0-0-0-0-0--0-0-0-0-0-0-0-0-0-0-0-0---0--0--0--0--0--0--|

e-|--------------------------------------------------------------------------|
b-|--------------------------------------------------------------------------|
g-|-10-10-10-10-10-10-10-10-10-10-10-10--5-5-5-5-5-5-5-5-5-5-5-5-5-5-5-5-5-5-|
d-|--x--x--x--x--x--x--x--x--x--x--x--x--x-x-x-x-x-x-x-x-x-x-x-x-x-x-x-x-x-x-|
a-|--8--8--8--8--8--8--8--8--8--8--8--8--3-3-3-3-3-3-3-3-3-3-3-3-3-3-3-3-3-3-|
d-|--0--0--0--0--0--0--0--0--0--0--0--0--0-0-0-0-0-0-0-0-0-0-0-0-0-0-0-0-0-0-|

e-|---------------------------------------|
b-|---------------------------------------|
g-|-9-9-9-9-9-9--7-7-7-7-7-7-7-7-7-7-7-7--|
d-|-x-x-x-x-x-x--x-x-x-x-x-x-x-x-x-x-x-x--|
a-|-7-7-7-7-7-7--5-5-5-5-5-5-5-5-5-5-5-5--|
d-|-0-0-0-0-0-0--0-0-0-0-0-0-0-0-0-0-0-0--|


e-|--------------------------------------------------------------------|
b-|--------------------------------------------------------------------|
g-|-11-11-11-11-11-11--10-10-10-10-10-10-10-10-10-10-10-10-10-10-10-10-|
d-|--x--x--x--x--x--x--x--x--x--x--x--x--x--x--x--x--x--x--x--x--x--x--|
a-|--9--9--9--9--9--9--8--8--8--8--8--8--8--8--8--8--8--8--8--8--8--8--|
d-|--0--0--0--0--0--0--0--0--0--0--0--0--0--0--0--0--0--0--0--0--0--0--|

e-|---------------------------------------------------------------------|
b-|---------------------------------------------------------------------|
g-|-10-10-10-10-10-10-10-10-10-10-10-10-10-10-10-10--9-9-9-9-9-9--7-7-7-|
d-|--x--x--x--x--x--x--x--x--x--x--x--x--x--x--x--x--x-x-x-x-x-x--x-x-x-|
a-|--8--8--8--8--8--8--8--8--8--8--8--8--8--8--8--8--7-7-7-7-7-7--5-5-5-|
d-|--0--0--0--0--0--0--0--0--0--0--0--0--0--0--0--0--0-0-0-0-0-0--0-0-0-|

e-|-------------------|
b-|-------------------|
g-|-7-7-7-7-7-7-7-7-7-|
d-|-x-x-x-x-x-x-x-x-x-|
a-|-5-5-5-5-5-5-5-5-5-|
d-|-0-0-0-0-0-0-0-0-0-|


3. Set To Fail

Intro Riff

|----------------------------------------------------------------------------|
|----------------------------------------------------------------------------|
|----------------------------------------------------------------------------|
|----------------------------------------------------------------------------|
|----------------------------------------------------------------------------|
|2223-2223-2223-2223-2223-2223-2223-2222-3p2-22-3p2-22-3p2-22-3p2-22-3p2-22--|
 ***  ***  ***  ***  ***  ***  ***  ****     **     **     **     **     **

|--------------------------------------------------------------------------|
|--------------------------------------------------------------------------|
|--------------------------------------------------------------------------|
|--------------------------------------------------------------------------|
|--------------------------------------------------------------------------|
|3p2-22-3p2-22 3p2-22-2223-2223-2223-2223-2223-2223-2223-2222-3p2-22-3p2-22|
     **     **     ** ***  ***  ***  ***  ***  ***  ***  ****     **     **


|--------------------------------------------------------------------------|
|--------------------------------------------------------------------------|
|--------------------------------------------------------------------------|
|--------------------------------------------------------------------------|
|--------------------------------------------------------------------------|
|3p2-22-3p2-22-22222222----------------------------------------------------|
     **     **

Chorus Riff

|--------------------------------------------------------------------------|
|--------------------------------------------------------------------------|
|--------------------------------------------------------------------------|
|--------------------------------------------------------------------------|
|--------------------------------------------------------------------------|
|-2-3-0-5~---2-2-2-3-0-5~---2-2-2-3-0-5~--2-2-2-2-2-2-0-2-2-2--3-2-0-7~----|

|--------------------------------------------------------------------------|
|--------------------------------------------------------------------------|
|--------------------------------------------------------------------------|
|------------------------------------------------------7\------------------|
|------------------------------------------------------5\------------------|
|2-2-2-3-0-5~--2-2-2-3-0-5~--2-2-2-2-2-2-0-2-2-2--3-2-0-----2-2-2-3-0-5~---|
                                                  * * *

|--------------------------------------------------------------------------|
|--------------------------------------------------------------------------|
|--------------------------------------------------------------------------|
|--------------------------------------------------------------------------|
|--------------------------------------------------------------------------|
|2-2-2-3-0-5~--2-2-2-2-2-2-0-2-2-2--3-2-0-3~--2-2-2-3-0-3~--2-2-2-3-5------|


|--------------------------------------------------------------------------|
|--------------------------------------------------------------------------|
|--------------------------------------------------------------------------|
|--------------------------------------------------------------------------|
|--------------------------------------------------------------------------|
|-222-333-555-777----------------------------------------------------------|
  *** *** *** ***


Verse Riff

|--------------------------------------------------------------------------|
|--------------------------------------------------------------------------|
|--------------------------------------------------------------------------|
|--------------------------------------------------------------------------|
|--------------------------------------------------------------------------|
|2-3-0-5~-2223-2223-2223-2223-2223-2223--2-3-0-7~--2223-2223-2223-2223-2223|
          ***  ***  ***  ***  ***  ***             ***  ***  ***  ***  ***

|--------------------------------------------------------------------------|
|--------------------------------------------------------------------------|
|--------------------------------------------------------------------------|
|--------------------------------------------------------------------------|
|--------------------------------------------------------------------------|
|-2223--2-3-0-5~--2223-2223-2223-2223-2223-2223--2-3-0-7~--2223-2223-2223--|
  ***             ***  ***  ***  ***  ***  ***             ***  ***  ***

|--------------------------------------------------------------------------|
|--------------------------------------------------------------------------|
|--------------------------------------------------------------------------|
|--------------------------------------------------------------------------|
|----------5--------5---5--------------------------------------------------|
|--22--------2-0-2----2---2--5-4-3-0-3-0-6---------------------------------|
   **


 Bridge

|--------------------------------------------------------------------------|
|--------------------------------------------------------------------------|
|--------------------------------------------------------------------------|
|--------------------------------------------------------------------------|
|--------------------------------------------------------------------------|
|-000-10-0-12---0000-3*--000--7-3-7--6-2-0-1-5-1-0-1-----------------------|
  ***    *      ****     ***

|--------------------------------------------------------------------------|
|--------------------------------------------------------------------------|
|--------------------------------------------------------------------------|
|--------------------------------------------------------------------------|
|--------------------------------------------------------------------------|
|-000-10-0-12---0000-3*--000--7-3-7--6-2-0-1-5-1-0-1-----------------------|
  ***    *      ****     ***

|--------------------------------------------------------------------------|
|--------------------------------------------------------------------------|
|--------------------------------------------------------------------------|
|--------------------------------------------------------------------------|
|--------------------------------------------------------------------------|
|-000-10-0-12--000-10-0-12--000--7-3-7--000--6-5-3-0-3---------------------|
  ***    *     ***    *     ***         ***

|--------------------------------------------------------------------------|
|--------------------------------------------------------------------------|
|--------------------------------------------------------------------------|
|--------------------------------------------------------------------------|
|--------------------------------------------------------------------------|
|-000-10-0-12--000-10-0-12---222-333-555-777-------------------------------|
  ***    *     ***    *      *** *** *** ***

breakdown before the solo

|---------------------------------------------------------------------|
|---------------------------------------------------------------------|
|---------------------------------------------------------------------|   x4
|---------------------------------------------------------------------|
|---------------------------------------------------------------------|
|-222222000022222200002222220000-2-5-2-5-7-5-2-5----------------------|
  ****************************** * * * * * * * *


4. Contractor (My Personal Favorite)

Riff 1 (play twice)

    (-------x3--------------------------|
  E |----------------|------------------|
  B |----------------|------------------|
  G |----------------|------------------|
  D |----------------|------------------|
  A |----------------|---2--3-7--6--3---|
  D |0h2-222222222222|0002--3-7--6--3---|
  pm     ............ ...

Riff 2 - FAST!!! (play twice)

  E |-------------------------------------|
  B |-------------------------------------|
  G |-------------------------------------|
  D |-------------------------------------|
  A |-------------------------------------|
  D |0-0-0-0-0-0-0-0-12p11-0-11p10-0-12---|
  pm . . . . . . . .       .       .


  E |-------------------------------------|
  B |-------------------------------------|
  G |-------------------------------------|
  D |-------------------------------------|
  A |-------------------------------------|
  D |0-0-0-0-0-0-0-0-12p11-0-11p10-0-13---|
  pm . . . . . . . .       .       .


  E |-------------------------------------|
  B |-------------------------------------|
  G |-------------------------------------|
  D |-------------------------------------|
  A |-------------------------------------|
  D |0-0-0-0-0-0-0-0-12p11-0-11p10-0-14---|
  pm . . . . . . . .       .       .


  E |--------------------------------|
  B |--------------------------------|
  G |--------------------------------|
  D |--------------------------------|
  A |7-----6-----3---7-----6-----1---|
  D |7-----6-----3---7-----6-----1---|
  pm             .

Riff 3 - Slow again...

     1 + 2 + 3 + 4 +  1 +  2  + 3 + 4 +
  E |-----------------------------------|
  B |-----------------------------------|
  G |-----------------------------------|
  D |0-0-0-0-0-0-0-12---12-12---5---5/7-|
  A |0-0-0-0-0-0-0-10---10-10---3---3/5-|
  D |0-0-0-0-0-0-0-10---10-10-0-3-0-3/5-|
  pm . . . . . . .


     1 +  2  +  3  +  4  +  1 +  2  + 3 + 4 +
  E |-----------------------------------------|
  B |-----------------------------------------|
  G |-----------------------------------------|
  D |5-------------------12---12-12---5---5/7-|
  A |3-------------------10---10-10---3---3/5-|
  D |3-0000--0000--0000--10---10-10-0-3-0-3/5-|
  pm   ....  ....  ....


     1 + 2 + 3 + 4 +  1 +  2  + 3 + 4 +
  E |-----------------------------------|
  B |-----------------------------------|
  G |-----------------------------------|
  D |0-0-0-0-0-0-0-12---12-12---5---5/7-|
  A |0-0-0-0-0-0-0-10---10-10---3---3/5-|
  D |0-0-0-0-0-0-0-10---10-10-0-3-0-3/5-|
  pm . . . . . . .


     1 +  2  +  3  +  4  +
  E |--------------------------|
  B |--------------------------|
  G |--------------------------|
  D |5-------------------------|
  A |3-------------------------|
  D |3-0000--0000--0000--8b----|
  pm   ....  ....  ....

Repeat all that stuff, then....


E |---------------------------|
B |---------------------------|
G |---------------------------|
D |0--------------------------|
A |0-hold it a long time------|
D |0--------------------------|


slide up then down into the next riff...


Riff 4 (play four times)

     1 + 2 + 3 + 4 + 1 + 2 + 3 + 4 +
  E |--------------------------------|
  B |--------------------------------|
  G |--------------------------------|
  D |--3\2---7---6-----------5-------|
  A |0-3\2-0-7---6-----------5-------|
  D |0-3\2-0-7---6---------005-------|
  pm .     .               ..


     1 + 2 + 3 + 4 +  1 + 2 + 3 + 4 +
  E |---------------------------------|
  B |---------------------------------|
  G |---------------------------------|
  D |--2\3---2/3--------------2/3-----|
  A |0-2\3-0-2/3-0-10-0-0-0-0-2/3-0-0-|
  D |0-2\3-0-2/3-0-10-0-0-0-0-2/3-0-0-|   Don't know about that 10 there...
  pm .     .     . .  . . . .     . .


Breakdown

     1 + 2 + 3 + 4 +
  E |------------------------|
  B |------------------------|
  G |------------------------|
  D |--3\2---7---6-----------|
  A |0-3\2-0-7---6-----------|
  D |0-3\2-0-7---6-----------|
  pm .     .

fassssst

  E |-------------------------------------|
  B |-------------------------------------|
  G |-------------------------------------|
  D |-------------------------------------|
  A |-------------------------------------|
  D |0-0-0-0-0-0-0-0-12p11-0-11p10-0-12---|
  pm . . . . . . . .       .       .


  E |-------------------------------------|
  B |-------------------------------------|
  G |-------------------------------------|
  D |-------------------------------------|
  A |-------------------------------------|
  D |0-0-0-0-0-0-0-0-12p11-0-11p10-0-13---|
  pm . . . . . . . .       .       .


  E |-------------------------------------|
  B |-------------------------------------|
  G |-------------------------------------|
  D |-------------------------------------|
  A |-------------------------------------|
  D |0-0-0-0-0-0-0-0-12p11-0-11p10-0-14---|
  pm . . . . . . . .       .       .


  E |-------------------------------------|
  B |-------------------------------------|
  G |-------------------------------------|
  D |-------------------------------------|
  A |-------------------------------------|
  D |0-0-0-0-0-0-0-0-/15b-----------------|
  pm . . . . . . . .


Riff Something (Play twice I think...can't remember now)

  E |-------------------------------------|
  B |-------------------------------------|
  G |-------------------------------------|
  D |-------------------------------------|
  A |-------------------------------------|
  D |0-0-0-0-0-0-0-0-12p11-0-11p10-0-12---|
  pm . . . . . . . .       .       .


  E |-------------------------------------|
  B |-------------------------------------|
  G |-------------------------------------|
  D |-------------------------------------|
  A |-------------------------------------|
  D |0-0-0-0-0-0-0-0-12p11-0-11p10-0-13---|
  pm . . . . . . . .       .       .


  E |-------------------------------------|
  B |-------------------------------------|
  G |-------------------------------------|
  D |-------------------------------------|
  A |-------------------------------------|
  D |0-0-0-0-0-0-0-0-12p11-0-11p10-0-14---|
  pm . . . . . . . .       .       .


  E |--------------------------------|
  B |--------------------------------|
  G |--------------------------------|
  D |--------------------------------|
  A |--------------------------------|   There might be slight vibratos on these,
  D |7-----6-----3---7-----6-----1---|   but I don't want to find my iPod to check.
  pm             .


Then play riff 2 twice, and then....

Final Chorus: (play twice)

     1 + 2 + 3 + 4 +  1 +  2  + 3 + 4 +
  E |-----------------------------------|
  B |-----------------------------------|
  G |-----------------------------------|
  D |0-0-0-0-0-0-0-12---12-12---5---5/7-|
  A |0-0-0-0-0-0-0-10---10-10---3---3/5-|
  D |0-0-0-0-0-0-0-10---10-10-0-3-0-3/5-|
  pm . . . . . . .


     1 +  2  +  3  +  4  +  1 +  2  + 3 + 4 +
  E |-----------------------------------------|
  B |-----------------------------------------|
  G |-----------------------------------------|
  D |5-------------------12---12-12---5---5/7-|
  A |3-------------------10---10-10---3---3/5-|
  D |3-0000--0000--0000--10---10-10-0-3-0-3/5-|
  pm   ....  ....  ....


Outro (play 3 or 4 times, can't remember)

     1 + 2 + 3 + 4 +  1 +  2  + 3 + 4 +
  E |-----------------------------------|
  B |-----------------------------------|
  G |-----------------------------------|
  D |0-0-0-0-0-0-0-12---12-12---5---5/7-|
  A |0-0-0-0-0-0-0-10---10-10---3---3/5-|
  D |0-0-0-0-0-0-0-10---10-10-0-3-0-3/5-|
  pm . . . . . . .


Ending

     1 + 2 + 3 + 4 +
  E |-----------------|
  B |-----------------|
  G |-----------------|
  D |0-0-0-0-0-0-0----|
  A |0-0-0-0-0-0-0----|
  D |0-0-0-0-0-0-0-8b-|
  pm . . . . . . .


5. Fake Messiah

      S S S S S S Q.        S S S S S S S S S S S S    S S S S S S Q.      
D#||---------------------|--------------------------|---------------------|
A#||---------------------|--------------------------|---------------------|
F#||---------------------|--------------------------|---------------------|
C#||---------------------|--------------------------|---------------------|
G#||------5---5----------|--------5-------6-5-------|------5---5----------|
C#||--0-3---3---3--------|--0-5-6---6-5-5-----7-8-5-|--0-3---3---3--------|


  S S S S S S S S S S S S    S S S S S S Q.        S S S S S S S S S S S S  
--------------------------|---------------------|--------------------------|
--------------------------|---------------------|--------------------------|
--------------------------|---------------------|--------------------------|
--------------------------|---------------------|--------------------------|
------3---3-------8---8---|------5---5----------|--------5-------6-5-------|
--0-1---1---1-0-6---6---6-|--0-3---3---3--------|--0-5-6---6-5-5-----7-8-5-|


                                               PM PM PM PM PM          
  S S S S S S Q.        S S S S S S E  Q       S  E  E  S  E  S S S S  
---------------------|----------------------|-------------------------|
---------------------|----------------------|-------------------------|
---------------------|----------------------|-------------------------|
---------------------|----------------------|-------------------------|
------5---5----------|------3---3---1-------|--0--0--0--0--0--0-0-0-0-|
--0-3---3---3--------|--0-1---1---1-1-------|--0--0--0--0--0--0-0-0-0-|


  PM PM PM PM PM            PM PM PM PM PM            PM PM PM PM PM          
  S  E  E  S  E  S S S S    S  E  E  S  E  S S S S    S  E  E  S  E  S S S S  
-------------------------|-------------------------|-------------------------|
-------------------------|-------------------------|-------------------------|
-------------------------|-------------------------|-------------------------|
-------------------------|-------------------------|-------------------------|
--0--0--0--0--0--0-0-0-0-|--1--1--1--1--0--0-0-0-0-|--1--1--1--1--0--0-0-0-0-|
--0--0--0--0--0--0-0-0-0-|--1--1--1--1--0--0-0-0-0-|--1--1--1--1--0--0-0-0-0-|


  PM PM PM PM PM            PM PM PM PM PM            PM PM PM PM PM          
  S  E  E  S  E  S S S S    S  E  E  S  E  S S S S    S  E  E  S  E  S S S S  
-------------------------|-------------------------|-------------------------|
-------------------------|-------------------------|-------------------------|
-------------------------|-------------------------|-------------------------|
-------------------------|-------------------------|-------------------------|
--0--0--0--0--0--0-0-0-0-|--0--0--0--0--0--0-0-0-0-|--1--1--1--1--0--0-0-0-0-|
--0--0--0--0--0--0-0-0-0-|--0--0--0--0--0--0-0-0-0-|--1--1--1--1--0--0-0-0-0-|


  PM PM PM PM PM            PM PM PM PM PM            PM PM PM PM PM          
  S  E  E  S  E  S S S S    S  E  E  S  E  S S S S    S  E  E  S  E  S S S S  
-------------------------|-------------------------|-------------------------|
-------------------------|-------------------------|-------------------------|
-------------------------|-------------------------|-------------------------|
-------------------------|-------------------------|-------------------------|
--1--1--1--1--0--0-0-0-0-|--0--0--0--0--0--0-0-0-0-|--0--0--0--0--0--0-0-0-0-|
--1--1--1--1--0--0-0-0-0-|--0--0--0--0--0--0-0-0-0-|--0--0--0--0--0--0-0-0-0-|


  PM PM PM PM PM            PM PM PM PM PM            PM PM PM              
  S  E  E  S  E  S S S S    S  E  E  S  E  S S S S    E  E  E  S S S S S S  
-------------------------|-------------------------|-----------------------|
-------------------------|-------------------------|-----------------------|
-------------------------|-------------------------|-----------------------|
-------------------------|-------------------------|-----------------------|
--1--1--1--1--0--0-0-0-0-|--1--1--1--1--0--0-0-0-0-|--0--0--0--0-0-0-0-0-0-|
--1--1--1--1--0--0-0-0-0-|--1--1--1--1--0--0-0-0-0-|--0--0--0--0-0-0-0-0-0-|


  PM PM PM                                                        
  E  E  E  S S S S S S    E  E  E  E  E  E     E  E  E  E  E  E   
-----------------------|--------------------|--------------------|
-----------------------|--------------------|--------------------|
-----------------------|--------------------|--------------------|
-----------------------|--------------------|--------------------|
--0--0--0--0-0-0-0-0-0-|--2--2--2--2--2--2--|--3--3--3--3--3--3--|
--0--0--0--0-0-0-0-0-0-|--2--2--2--2--2--2--|--3--3--3--3--3--3--|


  PM PM PM                PM PM PM                                   
  E  E  E  S S S S S S    E  E  E  S S S S S S    E  E  E  E  E  E   
-----------------------|-----------------------|--------------------|
-----------------------|-----------------------|--------------------|
-----------------------|-----------------------|--------------------|
-----------------------|-----------------------|--------------------|
--0--0--0--0-0-0-0-0-0-|--0--0--0--0-0-0-0-0-0-|--2--2--2--2--2--2--|
--0--0--0--0-0-0-0-0-0-|--0--0--0--0-0-0-0-0-0-|--2--2--2--2--2--2--|


                                   PM PM PM PM PM PM  
  E  E  E  E  E  E     S S S S S S S  S  S  S  S  S   
--------------------|--------------------------------|
--------------------|--------------------------------|
--------------------|--------------------------------|
--------------------|--------------------------------|
--3--3--3--6--6--6--|------5---5---------------------|
--3--3--3--6--6--6--|--0-3---3---3-0--0--0--0--0--0--|


                                         PM PM PM PM PM PM  
  S S S S S S S S S S S S    S S S S S S S  S  S  S  S  S   
--------------------------|--------------------------------|
--------------------------|--------------------------------|
--------------------------|--------------------------------|
--------------------------|--------------------------------|
--------5-------6-5-------|------5---5---------------------|
--0-5-6---6-5-5-----7-8-5-|--0-3---3---3-0--0--0--0--0--0--|


                                         PM PM PM PM PM PM  
  S S S S S S S S S S S S    S S S S S S S  S  S  S  S  S   
--------------------------|--------------------------------|
--------------------------|--------------------------------|
--------------------------|--------------------------------|
--------------------------|--------------------------------|
------3---3-------8---8---|------5---5---------------------|
--0-1---1---1-0-6---6---6-|--0-3---3---3-0--0--0--0--0--0--|


                                         PM PM PM PM PM PM  
  S S S S S S S S S S S S    S S S S S S S  S  S  S  S  S   
--------------------------|--------------------------------|
--------------------------|--------------------------------|
--------------------------|--------------------------------|
--------------------------|--------------------------------|
--------5-------6-5-------|------5---5---------------------|
--0-5-6---6-5-5-----7-8-5-|--0-3---3---3-0--0--0--0--0--0--|


  S S S S S S S S S S S S    H.              H.            
--------------------------|---------------|---------------|
--------------------------|---------------|---------------|
--------------------------|---------------|---------------|
--------------------------|---------------|---------------|
------5---5-------3---2---|---------------|---------------|
--0-3---3---3-0-1---1---1-|---------------|---------------|


                             PM PM PM PM PM            PM PM PM PM PM          
  S S S S S S S S S S S S    S  E  E  S  E  S S S S    S  E  E  S  E  S S S S  
--------------------------|-------------------------|-------------------------|
--------------------------|-------------------------|-------------------------|
--------------------------|-------------------------|-------------------------|
--------------------------|-------------------------|-------------------------|
--------------------------|--0--0--0--0--0--0-0-0-0-|--0--0--0--0--0--0-0-0-0-|
--0-0-0-0-0-0-1-1-1-1-1-1-|--0--0--0--0--0--0-0-0-0-|--0--0--0--0--0--0-0-0-0-|


  PM PM PM PM PM            PM PM PM PM PM            PM PM PM PM PM          
  S  E  E  S  E  S S S S    S  E  E  S  E  S S S S    S  E  E  S  E  S S S S  
-------------------------|-------------------------|-------------------------|
-------------------------|-------------------------|-------------------------|
-------------------------|-------------------------|-------------------------|
-------------------------|-------------------------|-------------------------|
--1--1--1--1--0--0-0-0-0-|--1--1--1--1--0--0-0-0-0-|--0--0--0--0--0--0-0-0-0-|
--1--1--1--1--0--0-0-0-0-|--1--1--1--1--0--0-0-0-0-|--0--0--0--0--0--0-0-0-0-|


  PM PM PM PM PM            PM PM PM PM PM            PM PM PM PM PM          
  S  E  E  S  E  S S S S    S  E  E  S  E  S S S S    S  E  E  S  E  S S S S  
-------------------------|-------------------------|-------------------------|
-------------------------|-------------------------|-------------------------|
-------------------------|-------------------------|-------------------------|
-------------------------|-------------------------|-------------------------|
--0--0--0--0--0--0-0-0-0-|--1--1--1--1--0--0-0-0-0-|--1--1--1--1--0--0-0-0-0-|
--0--0--0--0--0--0-0-0-0-|--1--1--1--1--0--0-0-0-0-|--1--1--1--1--0--0-0-0-0-|


  PM PM PM PM PM            PM PM PM PM PM            PM PM PM PM PM          
  S  E  E  S  E  S S S S    S  E  E  S  E  S S S S    S  E  E  S  E  S S S S  
-------------------------|-------------------------|-------------------------|
-------------------------|-------------------------|-------------------------|
-------------------------|-------------------------|-------------------------|
-------------------------|-------------------------|-------------------------|
--0--0--0--0--0--0-0-0-0-|--0--0--0--0--0--0-0-0-0-|--1--1--1--1--0--0-0-0-0-|
--0--0--0--0--0--0-0-0-0-|--0--0--0--0--0--0-0-0-0-|--1--1--1--1--0--0-0-0-0-|


  PM PM PM PM PM            PM PM PM                PM PM PM              
  S  E  E  S  E  S S S S    E  E  E  S S S S S S    E  E  E  S S S S S S  
-------------------------|-----------------------|-----------------------|
-------------------------|-----------------------|-----------------------|
-------------------------|-----------------------|-----------------------|
-------------------------|-----------------------|-----------------------|
--1--1--1--1--0--0-0-0-0-|--0--0--0--0-0-0-0-0-0-|--0--0--0--0-0-0-0-0-0-|
--1--1--1--1--0--0-0-0-0-|--0--0--0--0-0-0-0-0-0-|--0--0--0--0-0-0-0-0-0-|


                                            PM PM PM              
  E  E  E  E  E  E     E  E  E  E  E  E     E  E  E  S S S S S S  
--------------------|--------------------|-----------------------|
--------------------|--------------------|-----------------------|
--------------------|--------------------|-----------------------|
--------------------|--------------------|-----------------------|
--2--2--2--2--2--2--|--3--3--3--3--3--3--|--0--0--0--0-0-0-0-0-0-|
--2--2--2--2--2--2--|--3--3--3--3--3--3--|--0--0--0--0-0-0-0-0-0-|


  PM PM PM                                                        
  E  E  E  S S S S S S    E  E  E  E  E  E     E  E  E  E  E  E   
-----------------------|--------------------|--------------------|
-----------------------|--------------------|--------------------|
-----------------------|--------------------|--------------------|
-----------------------|--------------------|--------------------|
--0--0--0--0-0-0-0-0-0-|--2--2--2--2--2--2--|--3--3--3--6--6--6--|
--0--0--0--0-0-0-0-0-0-|--2--2--2--2--2--2--|--3--3--3--6--6--6--|


              PM PM PM PM PM PM                             
  S S S S S S S  S  S  S  S  S     S S S S S S S S S S S S  
--------------------------------|--------------------------|
--------------------------------|--------------------------|
--------------------------------|--------------------------|
--------------------------------|--------------------------|
------5---5---------------------|--------5-------6-5-------|
--0-3---3---3-0--0--0--0--0--0--|--0-5-6---6-5-5-----7-8-5-|


              PM PM PM PM PM PM                             
  S S S S S S S  S  S  S  S  S     S S S S S S S S S S S S  
--------------------------------|--------------------------|
--------------------------------|--------------------------|
--------------------------------|--------------------------|
--------------------------------|--------------------------|
------5---5---------------------|------3---3-------8---8---|
--0-3---3---3-0--0--0--0--0--0--|--0-1---1---1-0-6---6---6-|


              PM PM PM PM PM PM                             
  S S S S S S S  S  S  S  S  S     S S S S S S S S S S S S  
--------------------------------|--------------------------|
--------------------------------|--------------------------|
--------------------------------|--------------------------|
--------------------------------|--------------------------|
------5---5---------------------|--------5-------6-5-------|
--0-3---3---3-0--0--0--0--0--0--|--0-5-6---6-5-5-----7-8-5-|


              PM PM PM PM PM PM                             
  S S S S S S S  S  S  S  S  S     S S S S S S S S S S S S  
--------------------------------|--------------------------|
--------------------------------|--------------------------|
--------------------------------|--------------------------|
--------------------------------|--------------------------|
------5---5---------------------|------5---5-------3---2---|
--0-3---3---3-0--0--0--0--0--0--|--0-3---3---3-0-1---1---1-|


              PM PM PM PM PM PM                             
  S S S S S S S  S  S  S  S  S     S S S S S S S S S S S S  
--------------------------------|--------------------------|
--------------------------------|--------------------------|
--------------------------------|--------------------------|
--------------------------------|--------------------------|
------5---5---------------------|--------5-------6-5-------|
--0-3---3---3-0--0--0--0--0--0--|--0-5-6---6-5-5-----7-8-5-|


              PM PM PM PM PM PM                             
  S S S S S S S  S  S  S  S  S     S S S S S S S S S S S S  
--------------------------------|--------------------------|
--------------------------------|--------------------------|
--------------------------------|--------------------------|
--------------------------------|--------------------------|
------5---5---------------------|------3---3-------8---8---|
--0-3---3---3-0--0--0--0--0--0--|--0-1---1---1-0-6---6---6-|


              PM PM PM PM PM PM                             
  S S S S S S S  S  S  S  S  S     S S S S S S S S S S S S  
--------------------------------|--------------------------|
--------------------------------|--------------------------|
--------------------------------|--------------------------|
--------------------------------|--------------------------|
------5---5---------------------|--------5-------6-5-------|
--0-3---3---3-0--0--0--0--0--0--|--0-5-6---6-5-5-----7-8-5-|


              PM PM PM PM PM PM                             
  S S S S S S S  S  S  S  S  S     S S S S S S S S S S S S  
--------------------------------|--------------------------|
--------------------------------|--------------------------|
--------------------------------|--------------------------|
--------------------------------|--------------------------|
------5---5---------------------|------5---5-------3---2---|
--0-3---3---3-0--0--0--0--0--0--|--0-3---3---3-0-1---1---1-|

-------------------------------------------------------------
RIFF PLAYED BY GUITAR 2

|--------------------|------------------|
|--------------------|------------------|
|------------4b------|--L---------------|
|--------------------|------------------|
|--6-6--6--6---------|---------3--3--3--|
|--6-6--6--6---------|---------3--3--3--|
---------------------------------------------------------------

  S E  E  S S E  E  S    S E  E  S E  E  E     S E  E  S S E  E  S  
----------------------|---------------------|----------------------|
----------------------|---------------------|----------------------|
----------------------|---------------------|----------------------|
----------------------|---------------------|----------------------|
--6-6--6--6-6-6--6--6-|--6-6--6--6-3--3--3--|--6-6--6--6-6-6--6--6-|
--6-6--6--6-6-6--6--6-|--6-6--6--6-3--3--3--|--6-6--6--6-6-6--6--6-|


  S E  E  S E  E  E     S E  E  S S E  E  S    S E  E  S E  E  E   
---------------------|----------------------|---------------------|
---------------------|----------------------|---------------------|
---------------------|----------------------|---------------------|
---------------------|----------------------|---------------------|
--6-6--6--6-3--3--3--|--6-6--6--6-6-6--6--6-|--6-6--6--6-3--3--3--|
--6-6--6--6-3--3--3--|--6-6--6--6-6-6--6--6-|--6-6--6--6-3--3--3--|


                                               PM PM              
  S E  E  S S E  E  S    S E  E  S E  E  E     S  S  H        E   
----------------------|---------------------|--------------------|
----------------------|---------------------|--------------------|
----------------------|---------------------|--------------------|
----------------------|---------------------|--------------------|
--6-6--6--6-6-6--6--6-|--6-6--6--6-3--3--3--|--------------------|
--6-6--6--6-6-6--6--6-|--6-6--6--6-3--3--3--|--0--0--------------|


  PM PM      PM PM PM PM PM PM    PM PM                PM PM      PM PM       
  S  S  Q    S  S  S  S  S  S     S  S  H        E     S  S  Q    S  S  Q     
-------------------------------|--------------------|------------------------|
-------------------------------|--------------------|------------------------|
-------------------------------|--------------------|------------------------|
-------------------------------|--------------------|------------------------|
-------------------------------|--------------------|------------------------|
--0--0-------0--0--0--0--0--0--|--0--0--------------|--0--0-------0--0-------|


  PM PM                PM PM      PM PM PM PM PM PM    PM PM              
  S  S  H        E     S  S  Q    S  S  S  S  S  S     S  S  H        E   
--------------------|-------------------------------|--------------------|
--------------------|-------------------------------|--------------------|
--------------------|-------------------------------|--------------------|
--------------------|-------------------------------|--------------------|
--------------------|-------------------------------|--------------------|
--0--0--------------|--0--0-------0--0--0--0--0--0--|--0--0--------------|


  PM PM      PM PM         PM PM                      
  S  S  Q    S  S  Q       S  S  S S S S S S S S S S  
------------------------|----------------------------|
------------------------|----------------------------|
------------------------|----------------------------|
------------------------|----------------------------|
------------------------|--------8-5-8-5-8-5-8-5-8-5-|
--0--0-------0--0-------|--0--0----------------------|


  PM PM         PM PM PM PM PM PM    PM PM                      
  S  S  S S S S S  S  S  S  S  S     S  S  S S S S S S S S S S  
----------------------------------|----------------------------|
----------------------------------|----------------------------|
----------------------------------|----------------------------|
----------------------------------|----------------------------|
--------8-5-8-5-------------------|--------8-5-8-5-8-5-8-5-8-5-|
--0--0----------0--0--0--0--0--0--|--0--0----------------------|


  PM PM           PM PM            PM PM                      
  S  S   S S  S S S  S  S S S S    S  S  S S S S S S S S S S  
--------------------------------|----------------------------|
--------------------------------|----------------------------|
--------------------------------|----------------------------|
--------------------------------|----------------------------|
--------10-7-10-7-------7-4-7-4-|--------8-5-8-5-8-5-8-5-8-5-|
--0--0------------0--0----------|--0--0----------------------|


  PM PM         PM PM PM PM PM PM    PM PM                      
  S  S  S S S S S  S  S  S  S  S     S  S  S S S S S S S S S S  
----------------------------------|----------------------------|
----------------------------------|----------------------------|
----------------------------------|----------------------------|
----------------------------------|----------------------------|
--------8-5-8-5-------------------|--------8-5-8-5-8-5-8-5-8-5-|
--0--0----------0--0--0--0--0--0--|--0--0----------------------|


  PM PM           PM PM                                                
  S  S   S S  S S S  S  S S S S     
--------------------------------|
--------------------------------|
--------------------------------|
--------------------------------|
--------10-7-10-7-------7-4-7-4-|
--0--0------------0--0----------|


--------------------------------------------------------------------
RIFF PLAYED BY GUITAR 2 DURING SLIDES

 PM PM                        PM PM         PM PM PM PM PM PM  
  S  S  S S S S S S S S S S    S  S  S S S S S  S  S  S  S  S   
----------------------------|----------------------------------|
----------------------------|----------------------------------|
----------------------------|----------------------------------|
----------------------------|----------------------------------|
--------8-5-8-5-8-5-8-5-8-5-|--------8-5-8-5-------------------|
--0--0----------------------|--0--0----------0--0--0--0--0--0--|


  PM PM                        PM PM           PM PM          
  S  S  S S S S S S S S S S    S  S   S S  S S S  S  S S S S  
----------------------------|--------------------------------|
----------------------------|--------------------------------|
----------------------------|--------------------------------|
----------------------------|--------------------------------|
--------8-5-8-5-8-5-8-5-8-5-|--------10-7-10-7-------7-4-7-4-|
--0--0----------------------|--0--0------------0--0----------|


  PM PM                        PM PM         PM PM PM PM PM PM  
  S  S  S S S S S S S S S S    S  S  S S S S S  S  S  S  S  S   
----------------------------|----------------------------------|
----------------------------|----------------------------------|
----------------------------|----------------------------------|
----------------------------|----------------------------------|
--------8-5-8-5-8-5-8-5-8-5-|--------8-5-8-5-------------------|
--0--0----------------------|--0--0----------0--0--0--0--0--0--|


  PM PM                        PM PM           PM PM          
  S  S  S S S S S S S S S S    S  S   S S  S S S  S  S S S S  
----------------------------|--------------------------------|
----------------------------|--------------------------------|
----------------------------|--------------------------------|
----------------------------|--------------------------------|
--------8-5-8-5-8-5-8-5-8-5-|--------10-7-10-7-------7-4-7-4-|
--0--0----------------------|--0--0------------0--0----------|


  PM PM                        PM PM         PM PM PM PM PM PM  
  S  S  S S S S S S S S S S    S  S  S S S S S  S  S  S  S  S   
----------------------------|----------------------------------|
----------------------------|----------------------------------|
----------------------------|----------------------------------|
----------------------------|----------------------------------|
--------8-5-8-5-8-5-8-5-8-5-|--------8-5-8-5-------------------|
--0--0----------------------|--0--0----------0--0--0--0--0--0--|


  PM PM                        PM PM           PM PM          
  S  S  S S S S S S S S S S    S  S   S S  S S S  S  S S S S  
----------------------------|--------------------------------|
----------------------------|--------------------------------|
----------------------------|--------------------------------|
----------------------------|--------------------------------|
--------8-5-8-5-8-5-8-5-8-5-|--------10-7-10-7-------7-4-7-4-|
--0--0----------------------|--0--0------------0--0----------|


  PM PM                        PM PM         PM PM PM PM PM PM  
  S  S  S S S S S S S S S S    S  S  S S S S S  S  S  S  S  S   
----------------------------|----------------------------------|
----------------------------|----------------------------------|
----------------------------|----------------------------------|
----------------------------|----------------------------------|
--------8-5-8-5-8-5-8-5-8-5-|--------8-5-8-5-------------------|
--0--0----------------------|--0--0----------0--0--0--0--0--0--|


  PM PM                        PM PM           PM PM          
  S  S  S S S S S S S S S S    S  S   S S  S S S  S  S S S S  
----------------------------|--------------------------------|
----------------------------|--------------------------------|
----------------------------|--------------------------------|
----------------------------|--------------------------------|
--------8-5-8-5-8-5-8-5-8-5-|--------10-7-10-7-------7-4-7-4-|
--0--0----------------------|--0--0------------0--0----------|


  PM PM                        PM PM         PM PM PM PM PM PM  
  S  S  S S S S S S S S S S    S  S  S S S S S  S  S  S  S  S   
----------------------------|----------------------------------|
----------------------------|----------------------------------|
----------------------------|----------------------------------|
----------------------------|----------------------------------|
--------8-5-8-5-8-5-8-5-8-5-|--------8-5-8-5-------------------|
--0--0----------------------|--0--0----------0--0--0--0--0--0--|


  PM PM                        PM PM           PM PM          
  S  S  S S S S S S S S S S    S  S   S S  S S S  S  S S S S  
----------------------------|--------------------------------|
----------------------------|--------------------------------|
----------------------------|--------------------------------|
----------------------------|--------------------------------|
--------8-5-8-5-8-5-8-5-8-5-|--------10-7-10-7-------7-4-7-4-|
--0--0----------------------|--0--0------------0--0----------|


  PM PM                        PM PM         PM PM PM PM PM PM  
  S  S  S S S S S S S S S S    S  S  S S S S S  S  S  S  S  S   
----------------------------|----------------------------------|
----------------------------|----------------------------------|
----------------------------|----------------------------------|
----------------------------|----------------------------------|
--------8-5-8-5-8-5-8-5-8-5-|--------8-5-8-5-------------------|
--0--0----------------------|--0--0----------0--0--0--0--0--0--|


  PM PM                        PM PM         PM PM          
  S  S  S S S S S S S S S S    S  S  S S S S S  S  S S S S  
----------------------------|------------------------------|
----------------------------|------------------------------|
----------------------------|------------------------------|
----------------------------|------------------------------|
--------8-5-8-5-8-5-8-5-8-5-|--------7-4-7-4-------7-4-7-4-|
--0--0----------------------|--0--0----------0--0----------|


  PM PM                        PM PM         PM PM PM PM PM PM  
  S  S  S S S S S S S S S S    S  S  S S S S S  S  S  S  S  S   
----------------------------|----------------------------------|
----------------------------|----------------------------------|
----------------------------|----------------------------------|
----------------------------|----------------------------------|
--------8-5-8-5-8-5-8-5-8-5-|--------8-5-8-5-------------------|
--0--0----------------------|--0--0----------0--0--0--0--0--0--|


  PM PM                        PM PM           PM PM          
  S  S  S S S S S S S S S S    S  S   S S  S S S  S  S S S S  
----------------------------|--------------------------------|
----------------------------|--------------------------------|
----------------------------|--------------------------------|
----------------------------|--------------------------------|
--------8-5-8-5-8-5-8-5-8-5-|--------10-7-10-7-------7-4-7-4-|
--0--0----------------------|--0--0------------0--0----------|


  PM PM                        PM PM         PM PM PM PM PM PM  
  S  S  S S S S S S S S S S    S  S  S S S S S  S  S  S  S  S   
----------------------------|----------------------------------|
----------------------------|----------------------------------|
----------------------------|----------------------------------|
----------------------------|----------------------------------|
--------8-5-8-5-8-5-8-5-8-5-|--------8-5-8-5-------------------|
--0--0----------------------|--0--0----------0--0--0--0--0--0--|


  PM PM                        PM PM           PM PM                         
  S  S  S S S S S S S S S S    S  S   S S  S S S  S  S S S S                 
----------------------------|--------------------------------|----|----|----|
----------------------------|--------------------------------|----|----|----|
----------------------------|--------------------------------|----|----|----|
----------------------------|--------------------------------|----|----|----|
--------8-5-8-5-8-5-8-5-8-5-|--------10-7-10-7-------7-4-7-4-|----|----|----|
--0--0----------------------|--0--0------------0--0----------|----|----|----|

-----------------------------------------------------------------------------------------------

-------------------|-----------------|
-------------------|-----------------|
-------------------|-----------------|
--/15s~------------|---L------7------|
-------------------|-----------------|
-------------------|-----------------|


  H.                 Q.       Q.         H.                 H.            
-----------------|-------------------|------------------|----------------|
-----------------|-------------------|------------------|----------------|
-----------------|-------------------|------------------|----------------|
--6s~------------|--11s------17------|--15s~------------|---L------------|
-----------------|-------------------|------------------|----------------|
-----------------|-------------------|------------------|----------------|


   H.               Q.     Q.          H.                 Q.     Q.      
-----------------|-----------------|------------------|-----------------|
-----------------|-----------------|------------------|-----------------|
-----------------|-----------------|------------------|-----------------|
--14s------------|--8------7s------|--15s~------------|---L------7------|
-----------------|-----------------|------------------|-----------------|
-----------------|-----------------|------------------|-----------------|


  Q.        Q.          Q.       Q.           H.               H.            
--------------------|---------------------|----------------|----------------|
--------------------|---------------------|----------------|----------------|
--------------------|---------------------|----------------|----------------|
--6s~------11s------|--14s------12s~------|---L------------|---L------------|
--------------------|---------------------|----------------|----------------|
--------------------|---------------------|----------------|----------------|


                              PH         PM PM PM              
   H.               Q.        Q.         E  E  E  S S S S S S  
-----------------|--------------------|-----------------------|
-----------------|--------------------|-----------------------|
-----------------|--------------------|-----------------------|
--14~------------|--8s------<>7\------|-----------------------|
-----------------|--------------------|--0--0--0--0-0-0-0-0-0-|
-----------------|--------------------|--0--0--0--0-0-0-0-0-0-|


  PM PM PM                                                        
  E  E  E  S S S S S S    E  E  E  E  E  E     E  E  E  E  E  E   
-----------------------|--------------------|--------------------|
-----------------------|--------------------|--------------------|
-----------------------|--------------------|--------------------|
-----------------------|--------------------|--------------------|
--0--0--0--0-0-0-0-0-0-|--2--2--2--2--2--2--|--3--3--3--3--3--3--|
--0--0--0--0-0-0-0-0-0-|--2--2--2--2--2--2--|--3--3--3--3--3--3--|


  PM PM PM                PM PM PM                                   
  E  E  E  S S S S S S    E  E  E  S S S S S S    E  E  E  E  E  E   
-----------------------|-----------------------|--------------------|
-----------------------|-----------------------|--------------------|
-----------------------|-----------------------|--------------------|
-----------------------|-----------------------|--------------------|
--0--0--0--0-0-0-0-0-0-|--0--0--0--0-0-0-0-0-0-|--2--2--2--2--2--2--|
--0--0--0--0-0-0-0-0-0-|--0--0--0--0-0-0-0-0-0-|--2--2--2--2--2--2--|


                                   PM PM PM PM PM PM  
  E  E  E  E  E  E     S S S S S S S  S  S  S  S  S   
--------------------|--------------------------------|
--------------------|--------------------------------|
--------------------|--------------------------------|
--------------------|--------------------------------|
--3--3--3--6--6--6--|------5---5---------------------|
--3--3--3--6--6--6--|--0-3---3---3-0--0--0--0--0--0--|


                                         PM PM PM PM PM PM  
  S S S S S S S S S S S S    S S S S S S S  S  S  S  S  S   
--------------------------|--------------------------------|
--------------------------|--------------------------------|
--------------------------|--------------------------------|
--------------------------|--------------------------------|
--------5-------6-5-------|------5---5---------------------|
--0-5-6---6-5-5-----7-8-5-|--0-3---3---3-0--0--0--0--0--0--|


                                         PM PM PM PM PM PM  
  S S S S S S S S S S S S    S S S S S S S  S  S  S  S  S   
--------------------------|--------------------------------|
--------------------------|--------------------------------|
--------------------------|--------------------------------|
--------------------------|--------------------------------|
------3---3-------8---8---|------5---5---------------------|
--0-1---1---1-0-6---6---6-|--0-3---3---3-0--0--0--0--0--0--|


                                         PM PM PM PM PM PM  
  S S S S S S S S S S S S    S S S S S S S  S  S  S  S  S   
--------------------------|--------------------------------|
--------------------------|--------------------------------|
--------------------------|--------------------------------|
--------------------------|--------------------------------|
--------5-------6-5-------|------5---5---------------------|
--0-5-6---6-5-5-----7-8-5-|--0-3---3---3-0--0--0--0--0--0--|


                                         PM PM PM PM PM PM  
  S S S S S S S S S S S S    S S S S S S S  S  S  S  S  S   
--------------------------|--------------------------------|
--------------------------|--------------------------------|
--------------------------|--------------------------------|
--------------------------|--------------------------------|
------5---5-------3---2---|------5---5---------------------|
--0-3---3---3-0-1---1---1-|--0-3---3---3-0--0--0--0--0--0--|


                                         PM PM PM PM PM PM  
  S S S S S S S S S S S S    S S S S S S S  S  S  S  S  S   
--------------------------|--------------------------------|
--------------------------|--------------------------------|
--------------------------|--------------------------------|
--------------------------|--------------------------------|
--------5-------6-5-------|------5---5---------------------|
--0-5-6---6-5-5-----7-8-5-|--0-3---3---3-0--0--0--0--0--0--|


                                         PM PM PM PM PM PM  
  S S S S S S S S S S S S    S S S S S S S  S  S  S  S  S   
--------------------------|--------------------------------|
--------------------------|--------------------------------|
--------------------------|--------------------------------|
--------------------------|--------------------------------|
------3---3-------8---8---|------5---5---------------------|
--0-1---1---1-0-6---6---6-|--0-3---3---3-0--0--0--0--0--0--|


                                         PM PM PM PM PM PM  
  S S S S S S S S S S S S    S S S S S S S  S  S  S  S  S   
--------------------------|--------------------------------|
--------------------------|--------------------------------|
--------------------------|--------------------------------|
--------------------------|--------------------------------|
--------5-------6-5-------|------5---5---------------------|
--0-5-6---6-5-5-----7-8-5-|--0-3---3---3-0--0--0--0--0--0--|


                             PM PM PM PM PM PM PM PM PM    PM PM PM PM       
  S S S S S S S S S S S S    E  E  E  S  S  S  S  S  S     E  E  E  E  Q     
--------------------------|-----------------------------|-------------------|
--------------------------|-----------------------------|-------------------|
--------------------------|-----------------------------|-------------------|
--------------------------|-----------------------------|-------------------|
------5---5-------3---2---|--0--0--0--0--0--0--0--0--0--|--0--0--0--0-------|
--0-3---3---3-0-1---1---1-|--0--0--0--0--0--0--0--0--0--|--0--0--0--0-------|


  PM PM PM                PM PM PM                PM PM PM              
  E  E  E  S S S S S S    E  E  E  S S S S S S    E  E  E  S S S S S S  
-----------------------|-----------------------|-----------------------|
-----------------------|-----------------------|-----------------------|
-----------------------|-----------------------|-----------------------|
-----------------------|-----------------------|-----------------------|
--0--0--0--0-0-0-0-0-0-|--0--0--0--0-0-0-0-0-0-|--0--0--0--0-0-0-0-0-0-|
--0--0--0--0-0-0-0-0-0-|--0--0--0--0-0-0-0-0-0-|--0--0--0--0-0-0-0-0-0-|


  PM PM PM                PM PM PM                PM PM PM              
  E  E  E  S S S S S S    E  E  E  S S S S S S    E  E  E  S S S S S S  
-----------------------|-----------------------|-----------------------|
-----------------------|-----------------------|-----------------------|
-----------------------|-----------------------|-----------------------|
-----------------------|-----------------------|-----------------------|
--0--0--0--0-0-0-0-0-0-|--1--1--1--0-0-0-0-0-0-|--1--1--1--0-0-0-0-0-0-|
--0--0--0--0-0-0-0-0-0-|--1--1--1--0-0-0-0-0-0-|--1--1--1--0-0-0-0-0-0-|


  PM PM PM                PM PM PM                PM PM PM              
  E  E  E  S S S S S S    E  E  E  S S S S S S    E  E  E  S S S S S S  
-----------------------|-----------------------|-----------------------|
-----------------------|-----------------------|-----------------------|
-----------------------|-----------------------|-----------------------|
-----------------------|-----------------------|-----------------------|
--0--0--0--0-0-0-0-0-0-|--0--0--0--0-0-0-0-0-0-|--1--1--1--0-0-0-0-0-0-|
--0--0--0--0-0-0-0-0-0-|--0--0--0--0-0-0-0-0-0-|--1--1--1--0-0-0-0-0-0-|


  PM PM PM                PM PM PM                PM PM PM              
  E  E  E  S S S S S S    E  E  E  S S S S S S    E  E  E  S S S S S S  
-----------------------|-----------------------|-----------------------|
-----------------------|-----------------------|-----------------------|
-----------------------|-----------------------|-----------------------|
-----------------------|-----------------------|-----------------------|
--1--1--1--0-0-0-0-0-0-|--0--0--0--0-0-0-0-0-0-|--0--0--0--0-0-0-0-0-0-|
--1--1--1--0-0-0-0-0-0-|--0--0--0--0-0-0-0-0-0-|--0--0--0--0-0-0-0-0-0-|


  PM PM PM                PM PM PM                PM PM PM              
  E  E  E  S S S S S S    E  E  E  S S S S S S    E  E  E  S S S S S S  
-----------------------|-----------------------|-----------------------|
-----------------------|-----------------------|-----------------------|
-----------------------|-----------------------|-----------------------|
-----------------------|-----------------------|-----------------------|
--1--1--1--0-0-0-0-0-0-|--1--1--1--0-0-0-0-0-0-|--0--0--0--0-0-0-0-0-0-|
--1--1--1--0-0-0-0-0-0-|--1--1--1--0-0-0-0-0-0-|--0--0--0--0-0-0-0-0-0-|


  PM PM PM                PM PM PM                PM PM PM              
  E  E  E  S S S S S S    E  E  E  S S S S S S    E  E  E  S S S S S S  
-----------------------|-----------------------|-----------------------|
-----------------------|-----------------------|-----------------------|
-----------------------|-----------------------|-----------------------|
-----------------------|-----------------------|-----------------------|
--0--0--0--0-0-0-0-0-0-|--1--1--1--0-0-0-0-0-0-|--1--1--1--0-0-0-0-0-0-|
--0--0--0--0-0-0-0-0-0-|--1--1--1--0-0-0-0-0-0-|--1--1--1--0-0-0-0-0-0-|


  PM PM PM                PM PM PM                PM PM PM              
  E  E  E  S S S S S S    E  E  E  S S S S S S    E  E  E  S S S S S S  
-----------------------|-----------------------|-----------------------|
-----------------------|-----------------------|-----------------------|
-----------------------|-----------------------|-----------------------|
-----------------------|-----------------------|-----------------------|
--0--0--0--0-0-0-0-0-0-|--0--0--0--0-0-0-0-0-0-|--1--1--1--0-0-0-0-0-0-|
--0--0--0--0-0-0-0-0-0-|--0--0--0--0-0-0-0-0-0-|--1--1--1--0-0-0-0-0-0-|


  PM PM PM                PM PM PM                PM PM PM              
  E  E  E  S S S S S S    E  E  E  S S S S S S    E  E  E  S S S S S S  
-----------------------|-----------------------|-----------------------|
-----------------------|-----------------------|-----------------------|
-----------------------|-----------------------|-----------------------|
-----------------------|-----------------------|-----------------------|
--1--1--1--0-0-0-0-0-0-|--0--0--0--0-0-0-0-0-0-|--0--0--0--0-0-0-0-0-0-|
--1--1--1--0-0-0-0-0-0-|--0--0--0--0-0-0-0-0-0-|--0--0--0--0-0-0-0-0-0-|


  PM PM PM                PM PM PM                PM PM PM              
  E  E  E  S S S S S S    E  E  E  S S S S S S    E  E  E  S S S S S S  
-----------------------|-----------------------|-----------------------|
-----------------------|-----------------------|-----------------------|
-----------------------|-----------------------|-----------------------|
-----------------------|-----------------------|-----------------------|
--1--1--1--0-0-0-0-0-0-|--1--1--1--0-0-0-0-0-0-|--0--0--0--0-0-0-0-0-0-|
--1--1--1--0-0-0-0-0-0-|--1--1--1--0-0-0-0-0-0-|--0--0--0--0-0-0-0-0-0-|


  PM PM PM                PM PM PM                PM PM PM              
  E  E  E  S S S S S S    E  E  E  S S S S S S    E  E  E  S S S S S S  
-----------------------|-----------------------|-----------------------|
-----------------------|-----------------------|-----------------------|
-----------------------|-----------------------|-----------------------|
-----------------------|-----------------------|-----------------------|
--0--0--0--0-0-0-0-0-0-|--1--1--1--0-0-0-0-0-0-|--1--1--1--0-0-0-0-0-0-|
--0--0--0--0-0-0-0-0-0-|--1--1--1--0-0-0-0-0-0-|--1--1--1--0-0-0-0-0-0-|


  PM PM PM                PM PM PM PM        
  E  E  E  S S S S S S    E  E  E  E  Q      
-----------------------|-------------------||
-----------------------|-------------------||
-----------------------|-------------------||
-----------------------|-------------------||
--0--0--0--0-0-0-0-0-0-|--0--0--0--0-------||
--0--0--0--0-0-0-0-0-0-|--0--0--0--0-------||


6. Grace

Intro: 

Gtr 1 - (panned leftish)

            /--3--\
    q.  e  s  s  s  e  e  e    e  e  e  e  e  e e e   q.  e  s s s s  s s s s
Eb|--------------------------|----------------------|-----3--5p3---3----------|
Bb|--------------------------|----------------------|------------6----6-5-3-6-|
Gb|-10~-14-12h14p12\10-14p10-|-10/12-12/14-14\5-5/7-|-7~----------------------|
Db|--------------------------|----------------------|-------------------------|
Ab|--------------------------|----------------------|-------------------------|
Db|--------------------------|----------------------|-------------------------|
                                                /-3-\
    s s s s  s s s s  s s s s  s s s s   q.   e s s s e e e___
Eb|------------------------------------|--------------------|
Bb|-5-3---5--3-----3-------------------|--------------------|
Gb|-----5------5-3----5-3-2-5--3-2-----|--------------------|
Db|--------------------------------5\3-|-/8~--8-7h8p7\5-7p5-|
Ab|------------------------------------|--------------------|
Db|------------------------------------|--------------------|
  
              /--3---\
____(e) q  e  e  e   e  e e   W        s s s s  s s s s  s s s s  s s s s
Eb|-------------------------|--------|------------------------------------|
Bb|-------------------------|--------|----------------5--6p5\3-5--3-------|
Gb|-------------------------|--------|------------5-7---------------5\3-0-|
Db|-(5)\3--5--5b(7)r(5)-3---|--------|-----3-5-/7-------------------------|
Ab|-----------------------3-|-5~~----|-3-5--------------------------------|
Db|-------------------------|--------|------------------------------------|
   
               /--3--\
    q.  e   e  s  s  s  e e    16ths - - >
Eb|--------------------------|--------------------------------------|
Bb|-11~-11--11-10h11p10\8----|-10-8------8--------------------------|
Gb|-----------------------10-|-----10-9---10-9-7--10-9-7----8-7-6---|
Db|--------------------------|--------------------------10--------7-|
Ab|--------------------------|--------------------------------------|
Db|--------------------------|--------------------------------------|

    h____(e)e e e    e  e e e e  e e e   W       h     h    W_________(W)
Eb|----------------|-------------------|-------|-----------|--------|--------||
Bb|----------------|-------------------|-------|-----------|--------|--------||
Gb|-7~~----/9-9/10-|-10\9-9\7----------|-------|-----------|--------|--------||
Db|----------------|----------12\5-5-7-|-8~----|-7~~\\-----|--------|--------||
Ab|----------------|-------------------|-------|-------3---|-5------|-(5)----||
Db|----------------|-------------------|-------|-----------|--------|--------||


Gtr2 - (harmony part - panned rightish - much weaker in the mix)

           /-3-\
    q.  e  s s s  e  e  e   e e e e  e  e e e    W          W
Eb|-----------------------|--------------------|----------|----------|
Bb|-----------------------|--------------------|----------|----------|
Gb|-7~--10-9h10p9\7--10p7-|-7/9-9/10-10\9-9/10-|-10~~-----|-9~~~~----|
Db|-----------------------|--------------------|----------|----------|
Ab|-----------------------|--------------------|----------|----------|
Db|-----------------------|--------------------|----------|----------|

          /--3--\                     /---3---\
     h    s  s  s  e  e  e   e e e e  e  e    e  e e    W      W
Eb|------------------------|-------------------------|-------|-------|
Bb|------------------------|-------------------------|-------|-------|
Gb|------------------------|-------------------------|-------|-------|
Db|-/12~--10h12p10\8--10p8-|-8\7-7/8--8b(10)r(8)-7\5-|-/7~~--|-5~~~--|
Ab|------------------------|-------------------------|-------|-------|
Db|------------------------|-------------------------|-------|-------|

                /--3--\
    q.   e  e  s  s  s  e  e   16ths - - >
Eb|---------------------------|-----------------------------------------------|
Bb|-15~~-15-15-13h15p13-------|-13--------------------------------------------|
Gb|---------------------15-14-|---15-14-12--15-14-12---14-12-------12---------|
Db|---------------------------|---------------------15------15-14----15-14-11-|
Ab|---------------------------|-----------------------------------------------|
Db|---------------------------|-----------------------------------------------|

    W__________etc                 W__________etc
Eb|-----------|----------|-------|--------|--------|---------||
Bb|-----------|----------|-------|--------|--------|---------||
Gb|-----------|----------|-------|-10-----|-(10)---|-(10)----||
Db|-12~-------|-(12)-----|-(12)--|--------|--------|---------||
Ab|-----------|----------|-------|--------|--------|---------||
Db|-----------|----------|-------|--------|--------|---------||


And then there's one more guitar playing chords which I have a hell of a time
hearing.  It's basically following a Bb, Gm, Dm, C type of harmony but it's a
bit denser than that.  Here are my suggestions for chord voicings, although
I'm sure they're not quite what's on the record...

Eb|--0---|--3---|--0---|--3---|      |--0---|--3---|--0---|------||
Bb|--3---|--3---|--3---|--3---|      |--3---|--3---|--3---|------||
Gb|--0---|--3---|--2---|--0---| X3   |--0---|--3---|--2---|------||
Db|--3---|--0---|--0---|--0---|      |--3---|--0---|--0---|------||
Ab|--1---|--x---|--x---|--3---|      |--1---|--x---|--x---|------||
Db|------|--5---|--0---|------|      |------|--5---|--0---|------||

Just arpeggiate as desired.


-------------------------------------------------------------------------------
Main Riff:  (slight pm throughout)

Eb|------------------------------------|------------------------------------|
Bb|------------------------------------|------------------------------------|
Gb|------------------------------------|------------------------------------|
Db|------------------------------------|------------------------------------|
Ab|----------0--------1-0------0-------|----------0--------6----------------|
Db|-0-1-4-5----5-4-5------5-4----5-4-1-|-0-1-4-5----5-4-5----8-7-5--7-5-4-5-|

                                        1st end - - - - - - - - - - - - - -\
Eb|------------------------------------|-----------------------------------||
Bb|------------------------------------|-----------------------------------||
Gb|------------------------------------|-----------------------------------||X2
Db|------------------------------------|-----------------------------------||
Ab|----------0--------1-0------0-------|----------0------------------------||
Db|-0-1-4-5----5-4-5------5-4----5-4-1-|-0-1-4-5----5-4-5--3-5-3-6--3-5-3-6||

                            2nd end - - - - - - - - - - - - - - - \
        Eb|------------------------------------|------------------||
        Bb|------------------------------------|------------------||
        Gb|------------------------------------|------------------||<(bar of 2)
        Db|------------------------------------|------------------||
        Ab|----------0-------------------------|------------------||
        Db|-0-1-4-5----5-4-5--3-5-3-6--3-5-3-6-|-3-5-3-6--3-5-3-6-||

-------------------------------------------------------------------------------
Verse 1:

Eb|------------------------------------|------------------------------------|
Bb|------------------------------------|------------------------------------|
Gb|------------------------------------|------------------------------------|
Db|------------------------------------|------------------------------------|
Ab|-------5--------5-------------------|-------5------------------------0-3-|
Db|-0-0-0----0-0-0----0-0-0-0--3-5-3-6-|-0-0-0----0-0-0-0--5-3-1-0--5-3-----|
    pm - |   pm - |   pm - - |           pm - |   pm - - | 
                                                                             X2

Eb|------------------------------------|------------------------------------||
Bb|------------------------------------|------------------------------------||
Gb|------------------------------------|------------------------------------||
Db|------------------------------------|------------------------------------||
Ab|-------5--------5-------------------|-------5-----------6-5-5-3--6-5-5-3-||
Db|-0-0-0----0-0-0----0-0-0-0--3-5-3-6-|-0-0-0----0-0-0-0-------------------||
    pm - |   pm - |   pm - - |           pm - |   pm - - | 


    s s s s  e  e  s s s s  e  e    s se e e e e q
Eb|-------------------------------|------------------|
Bb|-------------------------------|------------------|
Gb|-10101010-10-10-10101010-10-10-|-1077-7-7-7-7-----|
Db|-8-8-8-8--8--8--8-8-8-8--8--8--|-8-55-5-5-5-5-----|
Ab|-8-8-8-8--8--8--8-8-8-8--8--8--|-8-55-5-5-5-5-----|
Db|-8-8-8-8--8--8--8-8-8-8--8--8--|-8-55-5-5-5-5-8b~~|
                                                 ph

(Separate Gtr1 and Gtr2 parts written on 1 staff)
(if you're only going to play one, play the top)
Eb|-------------------------------------|------------------------------------|
Bb|-------------------------------------|------------------------------------|
Gb|-------------------------------------|------------------------------------|
Db|-------------------8-7-5-7--10-8-7-8-|-------------------8-7-5-4--7-5-4---|
Ab|----------6-5-3-5--------------------|----------6-5-3-0-----------------6-|
Db|-0-0-0-0--0-0-5-7--8-7-5-7--10-8-7-8-|-0-0-0-0--0-0-5-7--8-7-5-4--7-5-4-1-|
    pm - - - - - - -|                     pm - - - - - - -|


    s s s s  e  e  s s s s  e  e    s se e e e e q
Eb|-------------------------------|------------------|
Bb|-------------------------------|------------------|
Gb|-10101010-10-10-10101010-10-10-|-1077-7-7-7-7-----|
Db|-8-8-8-8--8--8--8-8-8-8--8--8--|-8-55-5-5-5-5-----|
Ab|-8-8-8-8--8--8--8-8-8-8--8--8--|-8-55-5-5-5-5-----|
Db|-8-8-8-8--8--8--8-8-8-8--8--8--|-8-55-5-5-5-5-8b~~|
                                                 ph

-------------------------------------------------------------------------------
Repeat Main Riff with 2nd ending only.

-------------------------------------------------------------------------------
Verse 2

Repeat everything listed as Verse 1, then:

Eb|-------------------|-------------------|
Bb|-------------------|-------------------|
Gb|-2222-2-2-2222-2-2-|-5555-5-5-5555-5-5-|
Db|-0000-0-0-0000-0-0-|-5555-5-5-5555-5-5-|
Ab|-0000-0-0-0000-0-0-|-3333-3-3-3333-3-3-|
Db|-0000-0-0-0000-0-0-|-------------------|

    s s s s  e  e  s s s s  e  e    s se e e e e q
Eb|-------------------------------|------------------||
Bb|-------------------------------|------------------||
Gb|-10101010-10-10-10101010-10-10-|-1077-7-7-7-7-----||
Db|-8-8-8-8--8--8--8-8-8-8--8--8--|-8-55-5-5-5-5-----||
Ab|-8-8-8-8--8--8--8-8-8-8--8--8--|-8-55-5-5-5-5-----||
Db|-8-8-8-8--8--8--8-8-8-8--8--8--|-8-55-5-5-5-5-8b~~||
                                                 ph

-------------------------------------------------------------------------------
Repeat Main Riff with both endings.

-------------------------------------------------------------------------------
Breakdown:


Eb|------------------------------------|------------------------------------|
Bb|------------------------------------|------------------------------------|
Gb|------------------------------------|------------------------------------|
Db|------------------------------------|------------------------------------|
Ab|-------5-----------6----------------|------------------------------------|
Db|-0-0-0----0-0-0-0----0-0-0--0-0-0-0-|-3-1-0-3--1-0-3-5--6-5-3-0--8-7-4-7-|
    pm - |   pm - - -|  pm - - - - - - |                                     

Eb|------------------------------------|------------------------------------||
Bb|------------------------------------|------------------------------------||
Gb|------------------------------------|------------------------------------||
Db|------------------------------------|------------------------------------||
Ab|-------5-----------6----------------|-5-8-7-5--7-5-3-5--6-5-3-5----------||
Db|-0-0-0----0-0-0-0----0-0-0--0-0-0-0-|----------------------------8-7-4-7-||
    pm - |   pm - - -|  pm - - - - - - |

Play this figure 2X with the fills being played by Gtr 2 (right pan) only, then
2X more with both guitars playing fills in unison.

-------------------------------------------------------------------------------
Solo:

Gtr 1 - (panned left-ish)
                   /--3--\           /---3---\            /--3-\
(2:40) q.   e   e  s  s  s  e  e     e  e    e   e  e  e  s s  s e  e
Eb|-------------------------------|------------------------------------|
Bb|-//-11~--11--11-10h11p10-------|------------------------------------|
Gb|-------------------------12-10-|-12b(14)r(12)-10-9--10-9h10p9-------|
Db|-------------------------------|------------------------------12-10-|
Ab|-------------------------------|------------------------------------|
Db|-------------------------------|------------------------------------|

                                                    (2:48)      /-3-\
    q.   e  e  e   e  e    e  e   e  e   e  e  e  e   q.   e  e s s s e e
Eb|----------------------|--------------------------|---------------------|
Bb|---------15/17--17/18-|-18\17--17\15--15\8--8/10-|-11------------------|
Gb|---------x--x---x--x--|-x--x---x--x---x--x--x-x--|-x---\3--3-2h3p2-----|
Db|-12~~-12-12/14--14/15-|-15\14--14\12--12\5--5/7--|-8---------------5-3-|
Ab|----------------------|--------------------------|---------------------|
Db|----------------------|--------------------------|---------------------|
    ph
    
    /--3--\          /-3-\
    e  e  e   e e  e s s s e e   q.    e   h
Eb|----------------------------|-----------------|
Bb|----------------------------|-----------------|
Gb|----------------------------|-----------------|
Db|-5b(7)r(5)-3-2--3-2h3p2-----|-----------------|
Ab|------------------------5-3-|-5~~~b(7)r(5)~~~~|
Db|----------------------------|-----------------|
    ph

    /-3-\ /--3-\  /--3--\/--3-\  
    s s s s s  s  s  s  s s s s  e.   s_(e.)  s   
Eb|---------13h17t22p17p13-------20~b(22)~~~~~13-|
Bb|-------15--------------15---------------------|
Gb|-----14------------------14-------------------|
Db|---15----------------------15-----------------|
Ab|-17-------------------------------------------|
Db|----------------------------------------------|

       h     s  s  s  s   s  s  s  s
Eb|-15b(18)~~~13h15p13\12--13p12\10h12-|
Bb|------------------------------------|
Gb|------------------------------------|
Db|------------------------------------|
Ab|------------------------------------|
Db|------------------------------------|

    16ths - - >                      t  t  s  s  s
Eb|-10p9---9----------------------------------------|
Bb|------11---11p10--11--10-------------------------|
Gb|----------------12------12-10-12--12p11-11-------|
Db|-------------------------------------------12-11-|
Ab|-------------------------------------------------|
Db|-------------------------------------------------|

    16ths - - >
Eb|--------------------10--13-12-10-12--10---------|
Bb|------------10-11-14-------------------14-11-10-|
Gb|---9-10-12--------------------------------------|
Db|-12---------------------------------------------|
Ab|------------------------------------------------|
Db|------------------------------------------------|

(3:01)
    16ths - - >                                   h           q    s s s s
Eb|-13-12-10---15-13-12---17-15-13---18-17------|-20b(22)~---------5-------|
Bb|---------14---------15---------17------18-17-|----------8b(10)----8p6---|
Gb|---------------------------------------------|------------------------7-|
Db|---------------------------------------------|--------------------------|
Ab|---------------------------------------------|--------------------------|
Db|---------------------------------------------|--------------------------|

    16ths - - >
Eb|------------------------------------||---------|
Bb|-8p6---6----------------------------||---------|
Gb|-----7----7-6-5----7-6-5------------||---------|
Db|----------------7--------7--7-6-5-3-||---------|
Ab|------------------------------------||-5~~~~---|
Db|------------------------------------||---------|
                                         ph


Gtr 2 (harmony part - panned rightish - much weaker in the mix)
      You can reference where these parts line up with Gtr 1 by using
      the timings - e.g. (2:40) - provided in both parts.


1st chunk (2:40)        (a diatonic 6th below Gtr 1)

                /-3-\       /----3--\         /-3-\
       q.  e  e s s s e e   e  e    e  e e  e s s s e e   W
Eb|-----------------------|-----------------------------|----------||
Bb|-----------------------|-----------------------------|----------||
Gb|-//-7~--7--7-5h7p5-----|-----------------------------|----------||
Db|-------------------8-7-|-8b(10)r(8)-7-5--7-5h7p5-----|----------||
Ab|-----------------------|-------------------------8-7-|-5~~~-----||
Db|-----------------------|-----------------------------|----------||

2nd chunk (2:48)
  
      Same as the first, only now it sits a 3rd above Gtr 1 instead of a 6th
      below it.  So even though you're playing the same thing, it sounds a bit
      different because it sits differently against the lead part...


3rd chunk (3:01)        (a diatonic 6th below Gtr 1)

    16ths - - >                                             W
Eb|---------------------------------------10----------|-15b(17)~~~~~---||
Bb|-10----------11-10--------13-11-10--------13-11-10-|----------------||
Gb|----12-10-9--------12-10-----------12--------------|----------------||
Db|---------------------------------------------------|----------------||
Ab|---------------------------------------------------|----------------||
Db|---------------------------------------------------|----------------||


Gtr 3 (rhythm guitar underneath solo)
      I'm going to save some ink and just write the chords once for each bar.
      But the rhythm just sounds like steady 16ths so that's 16 per bar.


Eb|----|----|----|----|----|----|----|----|----|----|----|----|----|----||
Bb|----|----|----|----|----|----|----|----|----|----|----|----|----|----||
Gb|----|----|----|----|----|----|----|----|----|----|----|----|----|----||
Db|-3--|----|-7--|-5--|-3--|----|-7--|-2--|-3--|----|-7--|-5--|-3--|----||
Ab|-1--|-5--|-5--|-3--|-1--|-5--|-5--|-0--|-1--|-5--|-5--|-3--|-1--|-5--||
Db|----|-5--|----|----|----|-5--|----|----|----|-5--|----|----|----|-5--||


-------------------------------------------------------------------------------
Repeat Main Riff with both endings.

-------------------------------------------------------------------------------
Outro:
      Basically the same as the Breakdown riff - those 32nds might be in the bd
      too - sometimes I hear them and sometimes I don't.  But it sounds fine 
      with or without that little "gallop."

    s s s s  s s tt s  s s s s  s s s s
Eb|-------------------------------------|------------------------------------|
Bb|-------------------------------------|------------------------------------|
Gb|-------------------------------------|------------------------------------|
Db|-------------------------------------|------------------------------------|
Ab|-------5------------6----------------|------------------------------------|
Db|-0-0-0----0-0-00-0----0-0-0--0-0-0-0-|-3-5-3-6--3-5-3-6--3-5-3-6--3-5-3-6-|
    pm - |   pm - - -|   pm - - - - - - |           


Repeat 8X, end on a low C#.

7. Broken Hands

/ slide up
\ slide down
* pinch harmonic
~ vibrato
b bend to specified number of steps
h hammer on
p pull off
. palm mute

           intro/chorus guitar 1
|--------|-------------------------------------------------|
|--------|-------------------------------------------------|
|--------|-------------14----------------------14----------|
|--------|-12-12-13-12----13-12----12-13-12-------12----13-|3X
|-5-5----|----------------------15----------15-------15----|
|-5-5----|-------------------------------------------------|
  . .

|-------------------------------------|
|-------------------------------------|
|---------8---------------------------|
|---------x---------------------------|
|---------6-------5h6p5-----5h6p5-3h5-|
|-5-3-5-6---5-3-5-5h6p5-3-3-5h6p5-3h5-|
  . . . .   . . .       . .

          intro/chorus guitar 2
|--------------------------------------|---------------------------------|
|--------------------------------------|---------------------------------|
|--------------------------------------|---------------------------------|
|------0-0-0-0-0-0-0-0-0-0-0-0-6-6-6-6-|-5-5-5-5-5-5-5-3-3-3-3-3-3-3-3-3-|
|-5-5--0-0-0-0-0-0-0-0-0-0-0-0-6-6-6-6-|-5-5-5-5-5-5-5-3-3-3-3-3-3-3-3-3-|
|-5-5--0-0-0-0-0-0-0-0-0-0-0-0-6-6-6-6-|-5-5-5-5-5-5-5-3-3-3-3-3-3-3-3-3-|
  . .

|---------------------------------|-------------------------------------|
|---------------------------------|-------------------------------------|
|---------------------------------|---------8---------------------------|
|-6-6-6-6-6-6-6-6-6-6-6-6-6-6-6-6-|---------x---------------------------|
|-6-6-6-6-6-6-6-6-6-6-6-6-6-6-6-6-|---------6-------5h6p5-----5h6p5-3h5-|
|-6-6-6-6-6-6-6-6-6-6-6-6-6-6-6-6-|-3-5-3-6---5-3-5-5h6p5-3-3-5h6p5-3h5-|
                                    . . . .   . . .       . .
 
                                    

             verse guitars 1 and 2
|-----------||----------------------------------|
|-----------||----------------------------------|
|-----------||----------------------------------|
|-----------||----------------------------------|
|-0000-00-0-||-0000-00-0--000-0-0-3-0-4-0-3-0-1-|
|-0000-00-0-||-0000-00-0--000-0-0-3-0-4-0-3-0-1-|
  .... ..      .... ..    ...   .   .   .   .

|--------------------------------|
|--------------------------------|
|--------------------------------|
|--------------------------------|4X
|-0000-00-0--000-0-0-000-000-000-|
|-0000-00-0--000-0-0-000-000-000-|
  .... ..    ...   . ... ... ...

pre-chorus guitars 1 and 2
|--------------------------------------|
|--------------------------------------|
|--------------------------------------|
|--------------------------------------|2X
|--------------------------------------|
|-122222122222122222122222122222-4*b1~-|
  ..............................

|----------------------------------------|---------------------------------|
|----------------------------------------|---------------------------------|
|----------------------------------------|---------------------------------|
|----------------------------------------|---------------------------------|
|--------------------------------------3-|-----------------------------2-1-|
|-222-2--222-2--222-2--222-2--222-10\66--|-222-2--222-3--222-1--222-1--2-1-|
  ...    ...    ...    ...    ...          ...    ...    ...    ...    . .

chorus

verse

pre-chorus

chorus

solo
|------------------------|-------------------|----------------------|
|-10-------10-------12---|-13-----13---------|-15-----15------------|
|-12b1~----12b1~----14b1-|-15b1---15b1~------|-17b1---17b1~---------|
|------------------------|-------------------|----------------------|
|------------------------|-------------------|----------------------|
|------------------------|-------------------|----------------------|

|--------------------------------------------------------------------------|
|-19-16-------19p16-19p16-------21p19-21p19-------19p16-------19p16--------|
|-------19-18-------------19-18-------------19-18-------19-18--------19-18-|
|--------------------------------------------------------------------------|
|--------------------------------------------------------------------------|
|--------------------------------------------------------------------------|

|-----------------|
|-21b1~-----------|
|-----------------|
|-----------------|
|-----------------|
|-----------------|


rhythm for solo
|---------------------------------|
|---------------------------------|
|---------------------------------|
|-3-3-3-0-0-0-6-6-6-0-0-0-000-0-0-|
|-3-3-3-0-0-0-6-6-6-0-0-0-000-0-0-|
|-3-3-3-0-0-0-6-6-6-0-0-0-000-0-0-|
                          ... . .

3rd verse
|--------------------------|
|--------------------------|
|--------------------------|
|--------------------------|repeat
|--------------------------|
|-000000000--0000000-00000-|
  .........  ....... .....

|---------------------------------|     |----------------------------------|
|---------------------------------|     |----------------------------------|
|---------------------------------|     |----------------------------------|
|-3-3-3-0-0-0-6-6-6-0-0-0-000-0-0-|2x   |----------------------------------|
|-3-3-3-0-0-0-6-6-6-0-0-0-000-0-0-|     |----------------------------------|
|-3-3-3-0-0-0-6-6-6-0-0-0-000-0-0-|     |-33333300000066666600000000000000-|
                          ... . .         ................................

chorus

outro(use first verse riff)

then
|--------------------------|
|--------------------------|
|--------------------------|
|--------------------------|
|-0000-00-0--000-0-0-000-0-|
|-0000-00-0--000-0-0-000-0-|
  .... ..    ...   . ...

8. Dead Seeds

Gtr I (D A D G B E) - 'Mark Morton'
Gtr II (D A D G B E) - 'Willie Adler'

    Q=115
   4/4
    Gtrs I, II
                               PM----|            ~~~~~~~PM|   PM  PM
     E.      E.      E      Q  S S S S    E.      E.     S S S S S S S S S S  4x
||-------------------------------------|--------------------------------------||
||o------------------------------------|-------------------------------------o||
||-------------------------------------|--------------------------------------||
||-------------------------------------|--------------------------------------||
||o------------------------------------|-------------------------------------o||
||--12b13.5-12b13.5-12b13.5-0--0-0-0-0-|-12b13.5-12b13.5-0-0-1-0-4-0-5-4-1-3--||


  Gtr I
  PM------------|       PM------|         PM------|
  S S S S S S S S S S S S S S S S   S S S S S S S S S S S S S  S S S
|---------------------------------|------------------------------------|
|---------------------------------|------------------------------------|
|---------------------------------|------------------------------------|
|---------------------------------|------------------------------------|
|-0-0-0-0-0-0-0-0-5-3-5-----------|-6-5-6-----------6-5-3-5-9-10-9-6---|
|-0-0-0-0-0-0-0-0-------0-0-0-0-0-|-------0-0-0-0-0--------------------|
|
| Gtr II
| PM------------|
| S S S S S S S S H                 W
|---------------------------------|------------------------------------|
|---------------------------------|------------------------------------|
|---------------------------------|------------------------------------|
|---------------------------------|------------------------------------|
|-0-0-0-0-0-0-0-0-----------------|------------------------------------|
|-0-0-0-0-0-0-0-0-----------------|------------------------------------|


    PM----------|       PM------|         PM----------------------|
  S S S S S S S S S S S S S S S S   S S S S S S S S S S S S S S S S
|---------------------------------|---------------------------------|
|---------------------------------|---------------------------------|
|---------------------------------|---------------------------------|
|---------------------------------|---------------------------------|
|-5---------------5-3-5-----------|-6-5-6-----------1-1-1-1-1-1-1-1-|
|---0-0-0-0-0-0-0-------0-0-0-0-0-|-------0-0-0-0-0-1-1-1-1-1-1-1-1-|
|
|                                                   PM------------|
| W                                 H               S S S S S S S S
|---------------------------------|---------------------------------|
|---------------------------------|---------------------------------|
|---------------------------------|---------------------------------|
|---------------------------------|---------------------------------|
|---------------------------------|-----------------1-1-1-1-1-1-1-1-|
|---------------------------------|-----------------1-1-1-1-1-1-1-1-|


  Gtr I
  PM------------|       PM------|         PM------|
  S S S S S S S S S S S S S S S S   S S S S S S S S S S S S S  S S S
|---------------------------------|------------------------------------|
|---------------------------------|------------------------------------|
|---------------------------------|------------------------------------|
|---------------------------------|------------------------------------|
|-0-0-0-0-0-0-0-0-5-3-5-----------|-6-5-6-----------6-5-3-5-9-10-9-6---|
|-0-0-0-0-0-0-0-0-------0-0-0-0-0-|-------0-0-0-0-0--------------------|
|
| PM------------|
| S S S S S S S S H                 W
|---------------------------------|------------------------------------|
|---------------------------------|------------------------------------|
|---------------------------------|------------------------------------|
|---------------------------------|------------------------------------|
|-0-0-0-0-0-0-0-0-----------------|------------------------------------|
|-0-0-0-0-0-0-0-0-----------------|------------------------------------|


    PM----------|       PM------|         PM------|
  S S S S S S S S S S S S S S S S   S S S S S S S S S S S S S S S S
|---------------------------------|---------------------------------|
|---------------------------------|---------------------------------|
|---------------------------------|---------------------------------|
|---------------------------------|---------------------------------|
|-5---------------5-3-5-----------|-6-5-6-----------0-1-1-1-1-1-1-1-|
|---0-0-0-0-0-0-0-------0-0-0-0-0-|-------0-0-0-0-0-0-1-1-1-1-1-1-1-|
|
| W                                 H               S S S S S S S S
|---------------------------------|---------------------------------|
|---------------------------------|---------------------------------|
|---------------------------------|---------------------------------|
|---------------------------------|---------------------------------|
|---------------------------------|-----------------0-1-1-1-1-1-1-1-|
|---------------------------------|-----------------0-1-1-1-1-1-1-1-|


    Gtrs I, II
          PM------|       PM------|         PM------|
    S S S S S S S S S S S S S S S S   S S S S S S S S S S S S S  S S S
||----------------------------------|-----------------------------------|
||o---------------------------------|-----------------------------------|
||----------------------------------|-----------------------------------|
||--7s5s7-----------7s5s7-----------|-8s7s8-----------------------------|
||o-5s3s5-----------5s3s5-----------|-6s5s6-----------6-5-3-5-9-10-9-6--|
||--------0-0-0-0-0-------0-0-0-0-0-|-------0-0-0-0-0-------------------|


        PM------|       PM------|         PM----------------------|
  S S S S S S S S S S S S S S S S   S S S S S S S S S S S S S S S S
|---------------------------------|----------------------------------||
|---------------------------------|---------------------------------o||
|---------------------------------|----------------------------------||
|-7s5s7-----------7s5s7-----------|-8s7s8----------------------------||
|-5s3s5-----------5s3s5-----------|-6s5s6-0-0-0-0-0-0-1-1-1-1-1-1-1-o||
|-------0-0-0-0-0-------0-0-0-0-0-|-------0-0-0-0-0-0-1-1-1-1-1-1-1--||


                                                              D.C.
                                                            PM----|
  S S S S S S S S S S S S S S S S   S S S S S S S S S S S S S S S S
|---------------------------------|---------------------------------|
|---------------------------------|---------------------------------|
|---------------------------------|---------------------------------|
|---------------------------------|---------------------------------|
|---------------------------------|-------------------------1-1-1-1-|
|-1-2-2-3-2-2-1-2-2-3-2-2-5-3-2-2-|-1-2-2-3-2-2-1-2-2-3-2-2-1-1-1-1-|


                               PM----|            ~~~~~~~PM|   PM  PM
     E.      E.      E      Q  S S S S    E.      E.     S S S S S S S S S S  4x
||-------------------------------------|--------------------------------------||
||o------------------------------------|-------------------------------------o||
||-------------------------------------|--------------------------------------||
||-------------------------------------|--------------------------------------||
||o------------------------------------|-------------------------------------o||
||--12b13.5-12b13.5-12b13.5-0--0-0-0-0-|-12b13.5-12b13.5-0-0-1-0-4-0-5-4-1-3--||


  W          +W           +W           +W
|----------|------------|------------|--------|
|----------|------------|------------|--------|
|----------|------------|------------|--------|
|----------|------------|------------|--------|
|-0--------|-(0)--------|-(0)--------|-(0)----|
|-0--------|-(0)--------|-(0)--------|-(0)----|


    PM--------------------------------------------------------------|
    S S S S S S S S S S S S S S S S   S S S S S S S S S S S S S S S S
||----------------------------------|-----------------------------------||
||o---------------------------------|----------------------------------o||
||----------------------------------|-----------------------------------||
||----------------------------------|-----------------------------------||
||o-2-3-2-2-2-3-2-2-2-3-2-2-2-3-2-2-|-2-3-2-2-2-3-2-2-2-3-2-2-2-3-2-2--o||
||--2-3-2-2-2-3-2-2-2-3-2-2-2-3-2-2-|-2-3-2-2-2-3-2-2-2-3-2-2-2-3-2-2---||


       PM|    PM|      PM----|    PM|    PM|     PM--|    PM------------|
    Q  S S Q  S S Q    S S S S Q  S S Q  S S   S S S S Q  S S S S S S S S  3x
||-------------------|-----------------------|-----------------------------||
||o------------------|-----------------------|----------------------------o||
||-------------------|-----------------------|-----------------------------||
||-------------------|-----------------------|-----------------------------||
||o----2-2----2-2----|-2-3-2-2----2-2----2-2-|---2-2-2----2-3-2-2-2-3-2-2-o||
||--6--2-2-5--2-2-5--|-2-3-2-2-5--2-2-5--2-2-|-3-2-2-2-5--2-3-2-2-2-3-2-2--||


     PM|    PM|      PM----|    PM|    PM|     PM--|    PM----------|
  Q  S S Q  S S Q    S S S S Q  S S Q  S S   S S S S Q  S S S S S S S S
|------------------|-----------------------|-----------------------------|
|------------------|-----------------------|-----------------------------|
|------------------|-----------------------|-----------------------------|
|------------------|-----------------------|-----------------------------|
|----2-2----2-2----|-2-3-2-2----2-2----2-2-|---2-2-2----0-1-0-0-3-1-0----|
|-6--2-2-5--2-2-5--|-2-3-2-2-5--2-2-5--2-2-|-3-2-2-2-5--0-1-0-0-3-1-0-7--|


        PM--|         PM--|         PM----|       PM----------|
  +E  E S S S S +E  E S S S S   +S  S S S S S S S S S S S S S S S
|-----------------------------|-----------------------------------|
|-----------------------------|-----------------------------------|
|-----------------------------|-----------------------------------|
|-----------------------------|-----------------------------------|
|-------0-1-0---------0-1-0---|-------------3-5-6-0-1-0-0-3-1-0---|
|-(7)-6-0-1-0-7-(7)-6-0-1-0-7-|-(7)-6-3-5-6-------0-1-0-0-3-1-0-7-|


        PM--|         PM--|         PM----|       PM----------|
  +E  E S S S S +E  E S S S S   +S  S S S S S S S S S S S S S S S
|-----------------------------|-----------------------------------|
|-----------------------------|-----------------------------------|
|-----------------------------|-----------------------------------|
|-----------------------------|-----------------------------------|
|-------0-1-0---------0-1-0---|-------------3-5-6-0-1-0-0-3-1-0-7-|
|-(7)-6-0-1-0-7-(7)-6-0-1-0-7-|-(7)-6-3-5-6-------0-1-0-0-3-1-0-7-|


        PM--|         PM--|         PM----|       PM----------|
  +E  E S S S S +E  E S S S S   +S  S S S S S S S S S S S S S S S
|-----------------------------|-----------------------------------|
|-----------------------------|-----------------------------------|
|-----------------------------|-----------------------------------|
|-----------------------------|-----------------------------------|
|-(7)-6-0-1-0-7-(7)-6-0-1-0-7-|-(7)---------3-5-6-0-1-0-0-3-1-0-7-|
|-(7)-6-0-1-0-7-(7)-6-0-1-0-7-|-(7)-6-3-5-6-------0-1-0-0-3-1-0-7-|


                               2/4
        PM--|         PM--|         PM----|
  +E  E S S S S +E  E S S S S   +S  S S S S S S S
|-----------------------------|-------------------|
|-----------------------------|-------------------|
|-----------------------------|-------------------|
|-----------------------------|-------------------|
|-(7)-6-0-1-0-7-(7)-6-0-1-0-7-|-(7)---------3-5-6-|
|-(7)-6-0-1-0-7-(7)-6-0-1-0-7-|-(7)-6-3-5-6-------|


   4/4
                               PM----|            ~~~~~~~PM|   PM  PM
     E.      E.      E      Q  S S S S    E.      E.     S S S S S S S S S S  8x
||-------------------------------------|--------------------------------------||
||o------------------------------------|-------------------------------------o||
||-------------------------------------|--------------------------------------||
||-------------------------------------|--------------------------------------||
||o------------------------------------|-------------------------------------o||
||--12b13.5-12b13.5-12b13.5-0--0-0-0-0-|-12b13.5-12b13.5-0-0-1-0-4-0-5-4-1-3--||



9. Everything To Nothing

INTRO


e|-------------|
b|-------------|
G|-------------|
D|-------------|
A|---X/--12\---|
D|---X/--12\---|

e|-------------------------------|---------------------------------|
b|-------------------------------|---------------------------------|
G|-------------------------------|---------------------------------| Play
D|-------------------------------|---------------------------------|  2x
A|-------------------------------|-------------------------8-7-2-3-|
D|-2-222-3-2-2-2-2-2-5-2-2-6-2-5-|-2-222-3-2-2-2-2-2-2-2-2-8-7-2-3-|
     ***   * *   * *   * *   *       ***   * *   * *   * *

e|-------------------------------|---------------------------------|
b|-------------------------------|---------------------------------|
G|-------------------------------|---------------------------------|
D|-------------------------------|---------------------------------|
A|-------------------------------|---------------------------------|
D|-2-222-3-2-2-2-2-2-5-2-2-6-2-5-|-000-0-000-0-000-333-3-333-3-333-|
     ***   * *   * *   * *   *     *** * *** * *** *** * *** * ***

e|-------------------------------|---------------------------------|
b|-------------------------------|---------------------------------|
G|-------------------------------|---------------------------------|
D|-------------------------------|---------------------------------|
A|-------------------------------|-------------------------8-7-2-3-|
D|-2-222-3-2-2-2-2-2-5-2-2-6-2-5-|-2-222-3-2-2-2-2-2-2-2-2-8-7-2-3-|
     ***   * *   * *   * *   *       ***   * *   * *   * *

e|-------------------------------|---------------------------------|
b|-------------------------------|---------------------------------|
G|-------------------------------|---------------------------------|
D|-------------------------------|---------------------------------|
A|-------------------------------|---------------------------------|
D|-2-222-3-2-2-2-2-2-5-2-2-6-2-5-|-000-0-000-0-000-333-3-333-3-333-|
     ***   * *   * *   * *   *     *** * *** * *** *** * *** * ***


VERSE 1


e|-------------------------------|---------------------------------|
b|-------------------------------|---------------------------------|
G|-------------------------------|---------------------------------|
D|-------------------------------|---------------------------------|
A|-------------------------------|-------------------------8-7-2-3-|
D|-2-2-2-3-2-2-2-2-2-5-2-2-6-2-5-|-2-2-2-3-2-2-2-2-2-2-2-2-8-7-2-3-|\
     * *   * *   * *   * *   *       * *   * *   * *   * *           \Play
                                                                     / 2x
e|-------------------------------|---------------------------------|/
b|-------------------------------|---------------------------------|
G|-------------------------------|---------------------------------|
D|-------------------------------|---------------------------------|
A|-------------------------------|-0-----0-----0---3-----3-----3---|
D|-2-2-2-3-2-2-2-2-2-5-2-2-6-2-6-|-0-0-0-0-0-0-0-0-3-3-3-3-3-3-3-3-|
     * *   * *   * *   * *   *       * *   * *   *   * *   * *   *

e|-------------------------|-------------------------|
b|-------------------------|-------------------------|
G|-------------------------|-------------------------|
D|-------------------------|-------------------------|
A|-------------------------|-------------------------|
D|-2-2-2-2-2-2-2-2-2-2-2-2-|-2-2-2-2-2-2-2-2\---12\--|
         |_________________|       |_______|
                  |                    |
           Gradually bend--------------
           up a half step


CHORUS 1


e|---------------------------------|---------------------------------|
b|---------------------------------|---------------------------------|
G|---------------------------------|---------------------------------|
D|---------------------------------|---------------------------------|
A|---------------------------------|---2-2-2-2-2-2-2-2-2-2-2-2-2-2-2-|
D|-2-5-4-2-5-4-2-8-7-5-8-7-5-4-2-3-|-2-2-2-2-2-2-2-2-2-2-2-2-2-2-2-2-|\
                                       * * * * * * * * * * * * * * *   \Play
                                                                       / 2x
e|---------------------------------|---------------------------------|/
b|---------------------------------|---------------------------------|
G|---------------------------------|---------------------------------|
D|---------------------------------|---------------------------------|
A|---------------------------------|-0---0-----0-----3---3-----3-----|
D|-2-5-4-2-5-4-2-8-7-5-8-7-5-4-2-3-|-0-0-0-0-0-0-0-0-3-3-3-3-3-3-3-3-|
                                       *   * *   * *   *   * *   * *

e|------------|
b|------------|
G|------------|
D|-2----------|
A|-2----------|
D|-2----------|


VERSE 2 (exactly the same as VERSE 1)


CHORUS 2 (exactly the same as CHORUS 1)


BRIDGE


e|---------------------------|
b|---------------------------|
G|---------------------------| Play 3x
D|---------------------------|
A|---------------------------|
D|-222-2-222-2-222-2-3p2-2-2-|
   *** * *** * *** *     *

e|-----------------------------|
b|-----------------------------|
G|-----------------------------|
D|-----------------------------|
A|-----------------2-2-2-3-3-3-|
D|-222-2-222-2-222-2-2-2-3-3-3-|
   *** * *** * *** * * * * * *

                        Guitar 2 plays fret 5 instead of 6 for the bends
e|------------------------------|-------------------------|
b|------------------------------|-----------------6b--6b--|
G|------------------------------|-------------------------|
D|------------------------------|-------------------------| \
A|------------------------------|-------------------------|  \
D|-222-2-222-2-222-2-3p2-2-2----|-222-2-3p2-2-2-x----x----|   \
   *** * *** * *** *     *        *** *     * *                \Play
                                                               / 2x
e|------------------------------|----------------------------|/
b|------------------------------|----------------------------|
G|------------------------------|----------------------------|
D|------------------------------|----------------------------|
A|------------------------------|----------------------------|
D|-222-2-222-2-222-2-3p2-2-2----|-222-2-3p2-2-2-5--8-7-5-2-3-|
   *** * *** * *** *     *        *** *     * *

e|-------------------------------|----------------------------------- \
b|-------------------------------|-----------------------------|\---- \
G|-------------------------------|-----------------------------|----- \
D|-------------------------------|-----------------------------| ---- \
A|-2-2-2-2-2-2-2-3-2-2-2-2-2-2-2-|-2-2-2-3-2-2-2-2-2-5---2-5---|  --- \
D|-2-2-2-2-2-2-2-3-2-2-2-2-2-2-2-|-2-2-2-3-2-2-2-2-2-5---2-5---|   -- \
   * * *   * * *   * * * * * * *   * * *   * * * * * ^     ^         \
                                                                      \Play
e|-------------------------------|---------------------------------|  / 2x
b|-------------------------------|---------------------------------| /
G|-------------------------------|---------------------------------|/
D|-------------------------------|---------------------------------|
A|-2-2-2-2-2-2-2-3-2-2-2-2-2-2-2-|-2-2-2-3-2-2-2-5-2-2-2-8-7-5-2-3-|
D|-2-2-2-2-2-2-2-3-2-2-2-2-2-2-2-|-2-2-2-3-2-2-2-5-2-2-2-8-7-5-2-3-|
   * * *   * * *   * * * * * * *   * * *   * * *   * * *


GUITAR SOLO (I'll tab it later...for now here is the rhythm)


e|-------------------------------|-----------------------------|
b|-------------------------------|-----------------------------|
G|-------------------------------|-----------------------------| Play
D|-------------------------------|-----------------------------|  4x
A|-2-2-2-2-2-2-2-3-2-2-2-2-2-2-2-|-2-2-2-3-2-2-2-2-2-5---2-5---|
D|-2-2-2-2-2-2-2-3-2-2-2-2-2-2-2-|-2-2-2-3-2-2-2-2-2-5---2-5---|
   * * *   * * *   * * * * * * *   * * *   * * * * * ^     ^

e|-------------------------|-------------------------|
b|-------------------------|-------------------------|
G|-------------------------|-------------------------|
D|-------------------------|-------------------------|
A|-------------------------|-------------------------|
D|-2-2-2-2-2-2-2-2-2-2-2-2-|-2-2-2-2-2-2-2-2\---12\--|
         |_________________|       |_______|
                  |                    |
           Gradually bend--------------
           up a half step


CHORUS 3 (same as CHORUS 1)


OUTRO


e|---------------------------------|---------------------------------|
b|---------------------------------|---------------------------------|
G|---------------------------------|---------------------------------|
D|---------------------------------|-------------------------------5-|
A|---------------------------------|---------------------------------|\
D|-2-5-4-2-5-4-2-8-7-5-8-7-5-4-2-3-|-2-5-4-2-4-5-2-5-7-2-7-8-5-7-8---| \Play
                                                                         2x
e|---------------------------------|---------------------------------| /
b|---------------------------------|---------------------------------|/
G|---------------------------------|---------------------------------|
D|---------------------------------|---------------------------------|
A|---------------------------------|-0---0-----0-----3---3-----3-----|
D|-2-5-4-2-5-4-2-8-7-5-8-7-5-4-2-3-|-0-0-0-0-0-0-0-0-3-3-3-3-3-3-3-3-|
                                       *   * *   * *   *   * *   * *

e|-----------------------||
b|-----------------------||
G|-----------------------||
D|-2---------------------||
A|-2---------------------||
D|-2---------------------||
   let ring...........

10. Choke Sermon

Gtr I (D A D G B E) - 'Willie Adler'
Gtr II (D A D G B E) - 'Mark Morton'
Gtr III (D A D G B E) - 'Mark Morton Solo'

  Q=170
 4/4
  Gtrs I, II
  H    Q   S   S   S   S
|----------5-----------------|
|--------------5-------------|
|------------------5---------|
|----------------------5-----|
|----------------------------|
|----------------------------|
Sweep across with natural harmonics

        Gtr I
  PM--------------|            PM--------------|
  |-3-| |-3-| |-3-|  |--3--|   |-3-| |-3-| |-3-|  |--3--|
  E E E E E E E E E  E  E  E   E E E E E E E E E  E  E  E
|----------------------------|----------------------------|
|----------------------------|----------------------------|
|----------------------------|----------------------------|
|----------------------------|----------------------------|
|----------------------------|----------------------------|
|-0-0-0-0-0-0-0-0-0-12-10-12-|-0-0-0-0-0-0-0-0-0-13-12-13-|


                               Gtrs I, II
  PM--------------|            PM--|     PM--|
  |-3-| |-3-| |-3-|  |--3--|   |-3-| |3| |-3-| |3|
  E E E E E E E E E  E  E  E   E E E Q E E E E Q E
|----------------------------|----------------------|
|----------------------------|----------------------|
|----------------------------|----------------------|
|----------------------------|----------------------|
|----------------------------|-----------------2----|
|-0-0-0-0-0-0-0-0-0-15-13-15-|-6-5-3-6-6-5-3-0---1--|


  $
  PM--------------|            PM--------------|
  |-3-| |-3-| |-3-|  |--3--|   |-3-| |-3-| |-3-|  |--3--|
  E E E E E E E E E  E  E  E   E E E E E E E E E  E  E  E
|----------------------------|----------------------------|
|----------------------------|----------------------------|
|----------------------------|----------------------------|
|----------------------------|----------------------------|
|----------------------------|----------------------------|
|-0-0-0-0-0-0-0-0-0-12-10-12-|-0-0-0-0-0-0-0-0-0-13-12-13-|


  PM--------------|            PM--|          PM----|
  |-3-| |-3-| |-3-|  |--3--|   |-3-|  |--3--| |-3-|  |-3--|
  E E E E E E E E E  E  E  E   E E E  E  E  E E E E  E  E E
|----------------------------|---------------------------------|
|----------------------------|---------------------------------|
|----------------------------|---------------------------------|
|----------------------------|---------------------------------|
|----------------------------|-------------------------11------|
|-0-0-0-0-0-0-0-0-0-15-13-15-|-0-0-0-13-12-13-0-0-0-12----0----|


  PM--------------|            PM--------------|
  |-3-| |-3-| |-3-|  |--3--|   |-3-| |-3-| |-3-|  |--3--|
  E E E E E E E E E  E  E  E   E E E E E E E E E  E  E  E
|----------------------------|----------------------------|
|----------------------------|----------------------------|
|----------------------------|----------------------------|
|----------------------------|----------------------------|
|----------------------------|----------------------------|
|-0-0-0-0-0-0-0-0-0-12-13-12-|-0-0-0-0-0-0-0-0-0-13-12-13-|


  PM--------------|            PM--|     PM--|
  |-3-| |-3-| |-3-|  |--3--|   |-3-| |3| |-3-| |3|
  E E E E E E E E E  E  E  E   E E E Q E E E E Q E
|----------------------------|----------------------|
|----------------------------|----------------------|
|----------------------------|----------------------|
|----------------------------|----------------------|
|----------------------------|-----------------2----|
|-0-0-0-0-0-0-0-0-0-15-13-15-|-6-5-3-6-6-5-3-0---1--|


  PM--------------|            PM--------------|
  |-3-| |-3-| |-3-|  |--3--|   |-3-| |-3-| |-3-|  |--3--|
  E E E E E E E E E  E  E  E   E E E E E E E E E  E  E  E
|----------------------------|----------------------------|
|----------------------------|----------------------------|
|----------------------------|----------------------------|
|----------------------------|----------------------------|
|----------------------------|----------------------------|
|-0-0-0-0-0-0-0-0-0-12-10-12-|-0-0-0-0-0-0-0-0-0-13-12-13-|


  PM--------------|            PM--|          PM----|
  |-3-| |-3-| |-3-|  |--3--|   |-3-|  |--3--| |-3-|  |-3--|
  E E E E E E E E E  E  E  E   E E E  E  E  E E E E  E  E E
|----------------------------|---------------------------------|
|----------------------------|---------------------------------|
|----------------------------|---------------------------------|
|----------------------------|---------------------------------|
|----------------------------|-------------------------11------|
|-0-0-0-0-0-0-0-0-0-15-13-15-|-0-0-0-13-12-13-0-0-0-12----0----|


  PM--------------|            PM--------------|
  |-3-| |-3-| |-3-|  |--3--|   |-3-| |-3-| |-3-|  |--3--|
  E E E E E E E E E  E  E  E   E E E E E E E E E  E  E  E
|----------------------------|----------------------------|
|----------------------------|----------------------------|
|----------------------------|----------------------------|
|----------------------------|----------------------------|
|----------------------------|----------------------------|
|-0-0-0-0-0-0-0-0-0-12-13-12-|-0-0-0-0-0-0-0-0-0-13-12-13-|


  PM--------------|                         PM|      PM|
  |-3-| |-3-| |-3-|  |--3--|    |--3--|  |--3--|  |--3--|  |--3--|
  E E E E E E E E E  E  E  E    E  E  E  E  E  E  E  E  E  E  E  E
|----------------------------|----------------------------------------|
|----------------------------|----------------------------------------|
|----------------------------|----------------------------------------|
|----------------------------|----------------------------------------|
|----------------------------|----------10-------12-------13-12-------|
|-0-0-0-0-0-0-0-0-0-15-13-15-|-10-12-13----13-12----13-12-------13----|


  |-3-| |-3-| |-3-| |-3-|   |-3-| |-3-| |-3-| |-3-|
  E E E E E E E E E E E E   E E E E E E E E E E E E
|-------------------------|-------------------------|
|-------------------------|-------------------------|
|-------------------------|-------------------------|
|-------------------------|-------------------------|
|-3-3-3-3-3-3-3-3-3-3-3-3-|-3-3-3-3-3-3-3-3-3-3-3-3-|
|-3-3-3-3-3-3-3-3-3-3-3-3-|-3-3-3-3-3-3-3-3-3-3-3-3-|


  |-3-| |-3-| |-3-| |-3-|   |-3-| |-3-|  |---3---|   |---3---|
  E E E E E E E E E E E E   E E E E E E  E   E   E   E   E   E
|-------------------------|----------------------------------------|
|-------------------------|----------------------------------------|
|-------------------------|----------------------------------------|
|-------------------------|----------------------------------------|
|-2-2-2-2-2-2-2-2-2-2-2-2-|-1-1-1-1-1-1----------------------------|
|-2-2-2-2-2-2-2-2-2-2-2-2-|-1-1-1-1-1-1--x---x---x---x---x---x-----|
                                 Move hand up fretboard hitting harmonics

                                                        ~~~~
  |3|  |--3--| |--3--| |--3--|   |3|  |--3--| |--3--|
  Q E  E  E  E E  E  E E  E  E   Q E  E  E  E E  E  E   Q
|------------------------------|----------------------------|
|------------------------------|----------------------------|
|------------------------------|----------------------------|
|------------------------------|----------------------------|
|--------------8---------------|--------------8-------------|
|-0-0-12-10-12---12-10-0-10-12-|-0-0-12-10-12---12-10-[13]--|


                                 PM--|    PM--|
  |3|  |--3--| |--3--| |--3--|   |-3-|    |-3-|
  Q E  E  E  E E  E  E E  E  E   E E E Q  E E E Q
|------------------------------|---------------------|
|------------------------------|---------------------|
|------------------------------|---------------------|
|------------------------------|---------------------|
|--------------8---------------|-0-0-0-6--0-0-0-3----|
|-0-0-12-10-12---12-10-0-10-12-|-0-0-0-6--0-0-0-3----|


                                                        ~~~~
  |3|  |--3--| |--3--| |--3--|   |3|  |--3--| |--3--|
  Q E  E  E  E E  E  E E  E  E   Q E  E  E  E E  E  E   Q
|------------------------------|----------------------------|
|------------------------------|----------------------------|
|------------------------------|----------------------------|
|------------------------------|----------------------------|
|--------------8---------------|--------------8-------------|
|-0-0-12-10-12---12-10-0-10-12-|-0-0-12-10-12---12-10-[13]--|


                                         To Coda
                                 PM--|    PM--|
  |3|  |--3--| |--3--| |--3--|   |-3-|    |-3-|
  Q E  E  E  E E  E  E E  E  E   E E E Q  E E E Q
|------------------------------|---------------------|
|------------------------------|---------------------|
|------------------------------|---------------------|
|------------------------------|---------------------|
|--------------8---------------|-0-0-0-6--0-0-0-3----|
|-0-0-12-10-12---12-10-0-10-12-|-0-0-0-6--0-0-0-3----|


  PM--------------|            PM--------------|
  |-3-| |-3-| |-3-|  |--3--|   |-3-| |-3-| |-3-|  |--3--|
  E E E E E E E E E  E  E  E   E E E E E E E E E  E  E  E
|----------------------------|----------------------------|
|----------------------------|----------------------------|
|----------------------------|----------------------------|
|----------------------------|----------------------------|
|----------------------------|----------------------------|
|-0-0-0-0-0-0-0-0-0-12-10-12-|-0-0-0-0-0-0-0-0-0-13-12-13-|


                                                    D.S. al Coda
  PM--------------|                         PM|      PM|
  |-3-| |-3-| |-3-|  |--3--|    |--3--|  |--3--|  |--3--|  |--3--|
  E E E E E E E E E  E  E  E    E  E  E  E  E  E  E  E  E  E  E  E
|----------------------------|----------------------------------------|
|----------------------------|----------------------------------------|
|----------------------------|----------------------------------------|
|----------------------------|----------------------------------------|
|----------------------------|----------10-------12-------13-12-------|
|-0-0-0-0-0-0-0-0-0-15-13-15-|-10-12-13----13-12----13-12-------13----|


    &
    PM|                            PM|                    ~~~~
    |3|  |--3--| |--3--| |--3--|   |3|  |--3--| |--3--|
    Q E  E  E  E E  E  E E  E  E   Q E  E  E  E E  E  E   Q
||-------------------------------|----------------------------|
||o------------------------------|----------------------------|
||-------------------------------|----------------------------|
||-------------------------------|----------------------------|
||o-0-0----------8---------------|-0-0----------8-------------|
||--0-0-12-10-12---12-10-0-10-12-|-0-0-12-10-12---12-10-[13]--|


  PM|                            PM--|    PM--|
  |3|  |--3--| |--3--| |--3--|   |-3-|    |-3-|
  Q E  E  E  E E  E  E E  E  E   E E E Q  E E E Q
|------------------------------|---------------------||
|------------------------------|--------------------o||
|------------------------------|---------------------||
|------------------------------|---------------------||
|-0-0----------8---------------|-0-0-0-6--0-0-0-3---o||
|-0-0-12-10-12---12-10-0-10-12-|-0-0-0-6--0-0-0-3----||


  Gtr II
     PM|   PM|   PM--|   PM  PM  PM       PM|   PM|   PM----------------|
   E E E E E E E E   E E E E E E E E    E E E E E E E E   E E E E E E E E
|------------------|-----------------|------------------|-----------------|
|------------------|-----------------|------------------|-----------------|
|------------------|-----------------|------------------|-----------------|
|-10-----7-----7---|---5---8---5---8S|=10-----7-----7---|-----------------|
|--8-----5-----5---|---3---6---3---6S|==8-----5-----5---|-----------------|
|----0-0---0-0---0-|-0---0---0---0---|----0-0---0-0---0-|-0-0-0-0-0-0-0-0-|


     PM|   PM|   PM--|   PM  PM  PM
   E E E E E E E E   E E E E E E E E
|------------------|-----------------|
|------------------|-----------------|
|------------------|-----------------|
|-10-----7-----7---|---5---8---5---8S|
|--8-----5-----5---|---3---6---3---6S|
|----0-0---0-0---0-|-0---0---0---0---|


                     Gtrs I, II
     PM|   PM|   PM------------------------|
                     |-3-| |-3-| |-3-| |-3-|
   E E E E E E E E   E E E E E E E E E E E E
|------------------|-------------------------|
|------------------|-------------------------|
|------------------|-------------------------|
|-10-----7-----7---|-------------------------|
|--8-----5-----5---|-------------------------|
|----0-0---0-0---0-|-7-6-5-6-5-4-5-4-3-4-3-2-|


     PM|   PM|   PM--|   PM  PM  PM       PM|   PM|   PM----|     PM|
   E E E E E E E E   E E E E E E E E    E E E E E E E E   E E E E E E E E
|------------------|-----------------|------------------|-----------------|
|------------------|-----------------|------------------|-----------------|
|------------------|-----------------|------------------|-----------------|
|-10-----7-----7---|---5---8---5---8S|=10-----7-----7---|-----------------|
|--8-----5-----5---|---3---6---3---6S|==8-----5-----5---|-0-0-6-5-0-0-5-3-|
|----0-0---0-0---0-|-0---0---0---0---|----0-0---0-0---0-|-0-0-6-5-0-0-5-3-|


     PM|   PM|   PM--|   PM  PM  PM       PM|   PM|   PM----------------|
   E E E E E E E E   E E E E E E E E    E E E E E E E E   E E E E E E E E
|------------------|-----------------|------------------|-----------------|
|------------------|-----------------|------------------|-----------------|
|------------------|-----------------|------------------|-----------------|
|-10-----7-----7---|---5---8---5---8S|=10-----7-----7---|-----------------|
|--8-----5-----5---|---3---6---3---6S|==8-----5-----5---|-0-0-0-0-0-0-0-0-|
|----0-0---0-0---0-|-0---0---0---0---|----0-0---0-0---0-|-0-0-0-0-0-0-0-0-|


     PM|   PM|   PM--|   PM  PM  PM       PM|   PM|   PM----|     PM|
   E E E E E E E E   E E E E E E E E    E E E E E E E E   E E E E E E E E
|------------------|-----------------|------------------|-----------------|
|------------------|-----------------|------------------|-----------------|
|------------------|-----------------|------------------|-----------------|
|-10-----7-----7---|---5---8---5---8S|=10-----7-----7---|-----------------|
|--8-----5-----5---|---3---6---3---6S|==8-----5-----5---|-0-0-6-5-0-0-5-3-|
|----0-0---0-0---0-|-0---0---0---0---|----0-0---0-0---0-|-0-0-6-5-0-0-5-3-|


     PM|   PM|   PM--|   PM  PM  PM
   E E E E E E E E   E E E E E E E E
|------------------|-----------------|
|------------------|-----------------|
|------------------|-----------------|
|-10-----7-----7---|---5---8---5---8S|
|--8-----5-----5---|---3---6---3---6S|
|----0-0---0-0---0-|-0---0---0---0---|


     PM|   PM|   PM------------------------|
                     |-3-| |-3-| |-3-| |-3-|
   E E E E E E E E   E E E E E E E E E E E E
|------------------|-------------------------|
|------------------|-------------------------|
|------------------|-------------------------|
|-10-----7-----7---|-------------------------|
|--8-----5-----5---|-------------------------|
|----0-0---0-0---0-|-7-6-5-6-5-4-5-4-3-4-3-2-|


         PM|   PM|           PM--|            PM  PM  PM
   E     E E E E E   E       E     E    E     E E E E E  E
|------------------------------|-------------------------------|
|------------------------------|-------------------------------|
|------------------------------|-------------------------------|
|-10---------7-------7---------|--------5-------8---5----8s====|
|--8---------5-------5---------|--------3-------6---3----6s====|
|--------0-0---0-0-----------0-|---0----------0---0---0--------|
|
| Gtr III
|                                       ~~~~~~~
|  H.               +S    S  E    +E   +H.               E
|-15b17============(15)rp12-15-|-(15)-(15)b17------------------|
|------------------------------|------------------------22-----|
|------------------------------|-------------------------------|
|------------------------------|-------------------------------|
|------------------------------|-------------------------------|
|------------------------------|-------------------------------|


         PM---|            PM---|            PM----
   E     E     E     E     E     E     E     E
|-------------------------------------------------|
|-------------------------------------------------|
|-------------------------------------------------|
|-10-----------------7-----------------7----------|
|--8-----------------5-----------------5----------|
|--------0-----0-----------0-----0-----------0----|
|
|  S  S  S  S  S  S  S  S  S  S  S  S  S  S  S  S
|-22p17s15h17p15----------------------------------|
|----------------18p15h18-18-17p15s14-17----------|
|----------------------------------------15p14h15-|
|-------------------------------------------------|
|-------------------------------------------------|
|-------------------------------------------------|


 ---------------------------------------------|
   E     E     E     E      E      E     E     E
|---------------------------------------------------|
|---------------------------------------------------|
|---------------------------------------------------|
|---------------------------------------------------|
|--0-----0-----0-----0------0------0-----0-----0----|
|--0-----0-----0-----0------0------0-----0-----0----|
|
|  S  S  S  S  S  S  S  S   S   S  S  S  S  S  S  S
|---------------------------------------------------|
|-13p11p10----10----------[13]p11p10----10----------|
|----------13----13p12p10------------13----13p12p10-|
|---------------------------------------------------|
|---------------------------------------------------|
|---------------------------------------------------|


        PM|   PM|       PM-----|        PM    PM  PM
   E    E E E E E  E    E       E    E  E  E  E E E E
|----------------------------|----------------------------|
|----------------------------|----------------------------|
|----------------------------|----------------------------|
|-10--------7------7---------|-------5-----8----5---8s====|
|--8--------5------5---------|-------3-----6----3---6s====|
|-------0-0---0-0-------0----|--0-------0-----0---0-------|
|
|  ~~~~~                        ~~~~~~        ~~
|                  |---3---|
|  H.              E  E    E    Q       E  E  H
|-----------------10---------|----------------------------|
|--------------------13p==10-|----------------------------|
|-13b14----------------------|-13b14p==12-10-10-----------|
|----------------------------|----------------------------|
|----------------------------|----------------------------|
|----------------------------|----------------------------|


         PM---|            PM---|            PM----
   E     E     E     E     E     E     E     E
|-------------------------------------------------|
|-------------------------------------------------|
|-------------------------------------------------|
|-10-----------------7-----------------7----------|
|--8-----------------5-----------------5----------|
|--------0-----0-----------0-----0-----------0----|
|
|        PM------|
|  S  S  S  S  S  S  S  S  S  S  S  S  S  S  S  S
|-------------------------------------------------|
|-------------------15-13-------------13----------|
|-13-12-------------------14-13-12-------14-12----|
|-------13-12-15-12----------------15----------15-|
|-------------------------------------------------|
|-------------------------------------------------|


 -----------------------------------------------|
   |----3----|     |-----3-----| |-3-| |---3----|
   E    E    E     E    E      E E E E E E      E
|-------------------------------------------------|
|-------------------------------------------------|
|-------------------------------------------------|
|-------------------------------------------------|
|--0----0----0-----0----0------0-0-0-0-0-0------0-|
|--0----0----0-----0----0------0-0-0-0-0-0------0-|
|
|                           ~~~~~~~~~~~~~~~~~~~~
|  S  S    S    S  S  S     H               +E
|-------------------------------------------------|
|-15-13-------------------------------------------|
|---------14---13-12------------------------------|
|--------------------15---[13]-------------(13)---|
|-------------------------------------------------|
|-------------------------------------------------|


       PM|      PM|        PM----
    E  E E   E  E E  E     E
|-------------------------------|
|-------------------------------|
|-------------------------------|
|--10--------7-------7----------|
|---8--------5-------5----------|
|------0-0------0-0--------0----|
|
|   ~~~~ PM  ~~~~    PM------|
|   Q    E   Q.      S  S  S  S
|-------------------------------|
|-------------------------------|
|-------------------------------|
|-------------------------------|
|-------------------------------|
|-[15]---0-[12]-----10-12-10-12-|


 -|           PM           PM           PM
    E   E     E     E      E      E     E     E
|--------------------------------------------------|
|--------------------------------------------------|
|--------------------------------------------------|
|-------5-----------8-------------5-----------8s===|
|-------3-----------6-------------3-----------6s===|
|---0---------0------------0------------0----------|
|
|   E   S  S  S  S  S  S   S   S  S  S  S  S  S  S
|--------------------------------------------------|
|--------------------------------------------------|
|--------------------------------------------------|
|------------------12h14-[15]h16p15p12h15p12----12-|
|------12h13h15s16---------------------------16----|
|-[15]---------------------------------------------|


          PM|     PM------|    PM----------------------|
    E     E E E   E       E E  E        E  E E E E E E E
|-----------------------------------|--------------------|
|-----------------------------------|--------------------|
|-----------------------------------|--------------------|
|--10---------7-------------7-------|--------------------|
|---8---------5-------------5-------|---0--0-0-0-0-0-0-0-|
|---------0-0-----0-------0----0----|---0--0-0-0-0-0-0-0-|
|
|                                       ~~~~
|   H            +Q.           S  S     W
|-----------------------------------|--------------------|
|-----------------------------------|--------------------|
|-----------------------------------|--------------------|
|-[14]b15-------(14)b15.5p====12----|-[12]---------------|
|--------------------------------15-|--------------------|
|-----------------------------------|--------------------|


         PM---|            PM---|            PM----
   E     E     E     E     E     E     E     E
|-------------------------------------------------|
|-------------------------------------------------|
|-------------------------------------------------|
|-10-----------------7-----------------7----------|
|--8-----------------5-----------------5----------|
|--------0-----0-----------0-----0-----------0----|
|
|  S  S  S  S  S  S  S  S  S  S  S  S  S  S  S  S
|-------------------------------------------------|
|-15h18p15----15h18p15----15h20p15----15h20p15----|
|----------17----------17----------19----------19-|
|-------------------------------------------------|
|-------------------------------------------------|
|-------------------------------------------------|


 -|            PM          PM          PM
   E     E     E     E     E     E     E     E
|-------------------------------------------------|
|-------------------------------------------------|
|-------------------------------------------------|
|--------5-----------8-----------5-----------8s===|
|--------3-----------6-----------3-----------6s===|
|--0-----------0-----------0-----------0----------|
|
|  S  S  S  S  S  S  S  S  S  S  S  S  S  S  S  S
|-------------------------------------------------|
|-15-13-------15-13-------15p13-------15p13-------|
|-------14-12-------14-12-------14-12-------14p12-|
|-------------------------------------------------|
|-------------------------------------------------|
|-------------------------------------------------|


        PM|    PM---|            PM--------------------------------------|
                                         |--3--|  |--3--|  |--3--|  |--3--|
   E    E E E  E     E     E     E       E  E  E  E  E  E  E  E  E  E  E  E
|-------------------------------------|-------------------------------------|
|-------------------------------------|-------------------------------------|
|-------------------------------------|-------------------------------------|
|-10--------7--------------7----------|-------------------------------------|
|--8--------5--------------5----------|-------------------------------------|
|-------0-0----0-----0-----------0----|--7--6--5--6--5--4--5--4--3--4--3--2-|
|
|  ~~~~~                                                   PM------------|
|                                        |--3--|  |--3--|  |--3--|  |--3--|
|  H           S  S  S  S  S  S  S  S    E  E  E  E  E  E  E  E  E  E  E  E
|-------------------------------------|-------------------------------------|
|-------------------------------------|-------------------------------------|
|-12b14-------14p12----12-13h14p13p12-|-------------------------------------|
|-------------------14----------------|-17-16-15----------------------------|
|-------------------------------------|----------17-16-15-------------------|
|-------------------------------------|-------------------17-16-15-15-14-13-|


   |-3-| |-3-| |-3-| |-3-|     |-3--| |-3-| |-3-| |-3-|
   E E E E E E E E E E E E     E  E E E E E E E E E E E
|--------------------------|----------------------------|
|--------------------------|----------------------------|
|--------------------------|----------------------------|
|--------------------------|----------------------------|
|--3-3-3-3-3-3-3-3-3-3-3-3-|---3--3-3-3-3-3-3-3-3-3-3-3-|
|--3-3-3-3-3-3-3-3-3-3-3-3-|---3--3-3-3-3-3-3-3-3-3-3-3-|
|
|  ~~~~~~~~~~~~~~~~~~~~~~~~~~~~~~~~~~~~~~~~~~~~~~~~~~~~~~
|  W                          +W
|--------------------------|----------------------------|
|--------------------------|----------------------------|
|--------------------------|----------------------------|
|--------------------------|----------------------------|
|--------------------------|----------------------------|
|-15-----------------------|-(15)-----------------------|


    |-3--| |-3-| |-3-| |-3-|     |-3--| |-3-| |-3-| |-3-|
    E  E E E E E E E E E E E     E  E E E E E E E E E E E
|----------------------------|-------------------------------|
|----------------------------|-------------------------------|
|----------------------------|-------------------------------|
|----------------------------|-------------------------------|
|---2--2-2-2-2-2-2-2-2-2-2-2-|---1--1-1-1-1-1-1-1-1-1-1-1----|
|---2--2-2-2-2-2-2-2-2-2-2-2-|---1--1-1-1-1-1-1-1-1-1-1-1----|
|
|~~~~~~~~~~~~~~~~~~~~~~~~~~~~~~~~~~~
|   W                           +W
|----------------------------|-------------------------------|
|----------------------------|-------------------------------|
|----------------------------|-------------------------------|
|----------------------------|-------------------------------|
|----------------------------|-------------------------------|
|-[14]-----------------------|-(14)--------------------------|


  PM--------------------------------------------|
  |-3-| |-3-|   |-3-| |-3-|   |-3-| |-3-|   |-3-|  |---3---|   |---3---|
  Q Q Q Q Q Q   Q Q Q Q Q Q   Q Q Q Q Q Q   Q Q Q  E   E   E   E   E   E
|-------------|-------------|-------------|-------------------------------|
|-------------|-------------|-------------|-------------------------------|
|-------------|-------------|-------------|-------------------------------|
|-------------|-------------|-------------|-------------------------------|
|-3-3-3-3-3-3-|-3-3-3-3-3-3-|-2-2-2-2-2-2-|-1-1-1-------------------------|
|-3-3-3-3-3-3-|-3-3-3-3-3-3-|-2-2-2-2-2-2-|-1-1-1--x---x---x---x---x---x--|
                                            Move hand up fretboard hitting harmonics

                                                          ~~~~
    |3|  |--3--| |--3--| |--3--|   |3|  |--3--| |--3--|
    Q E  E  E  E E  E  E E  E  E   Q E  E  E  E E  E  E   Q
||-------------------------------|----------------------------|
||o------------------------------|----------------------------|
||-------------------------------|----------------------------|
||-------------------------------|----------------------------|
||o--------------8---------------|--------------8-------------|
||--0-0-12-10-12---12-10-0-10-12-|-0-0-12-10-12---12-10-[13]--|


                                 PM--|    PM--|
  |3|  |--3--| |--3--| |--3--|   |-3-|    |-3-|
  Q E  E  E  E E  E  E E  E  E   E E E Q  E E E Q
|------------------------------|---------------------||
|------------------------------|--------------------o||
|------------------------------|---------------------||
|------------------------------|---------------------||
|--------------8---------------|-0-0-0-6--0-0-0-3---o||
|-0-0-12-10-12---12-10-0-10-12-|-0-0-0-6--0-0-0-3----||


  PM|                            PM|                    ~~~~
  |3|  |--3--| |--3--| |--3--|   |3|  |--3--| |--3--|
  Q E  E  E  E E  E  E E  E  E   Q E  E  E  E E  E  E   Q
|------------------------------|----------------------------|
|------------------------------|----------------------------|
|------------------------------|----------------------------|
|------------------------------|----------------------------|
|-0-0----------8---------------|-0-0----------8-------------|
|-0-0-12-10-12---12-10-0-10-12-|-0-0-12-10-12---12-10-[13]--|


  PM|                            PM--|    PM--|
  |3|  |--3--| |--3--| |--3--|   |-3-|    |-3-|
  Q E  E  E  E E  E  E E  E  E   E E E Q  E E E Q
|------------------------------|---------------------|
|------------------------------|---------------------|
|------------------------------|---------------------|
|------------------------------|---------------------|
|-0-0----------8---------------|-0-0-0-6--0-0-0-3----|
|-0-0-12-10-12---12-10-0-10-12-|-0-0-0-6--0-0-0-3----|


  PM|                            PM|                    ~~~~
  |3|  |--3--| |--3--| |--3--|   |3|  |--3--| |--3--|
  Q E  E  E  E E  E  E E  E  E   Q E  E  E  E E  E  E   Q
|------------------------------|----------------------------|
|------------------------------|----------------------------|
|------------------------------|----------------------------|
|------------------------------|----------------------------|
|-0-0----------8---------------|-0-0----------8-------------|
|-0-0-12-10-12---12-10-0-10-12-|-0-0-12-10-12---12-10-[13]--|


  PM|                            PM|                PM
  |3|  |--3--| |--3--| |--3--|   |3|  |--3--| |--3--| |--3--|
  Q E  E  E  E E  E  E E  E  E   Q E  E  E  E E  E  E E  E  E
|------------------------------|-------------------------------|
|------------------------------|-------------------------------|
|------------------------------|-------------------------------|
|------------------------------|-------------------------------|
|-0-0----------8---------------|-0-0----------8----------------|
|-0-0-12-10-12---12-10-0-10-12-|-0-0-12-10-12---12-10-0-10-12--|


  PM|                PM
  |3|  |--3--| |--3--| |--3--|
  Q E  E  E  E E  E  E E  E  E
|------------------------------|
|------------------------------|
|------------------------------|
|------------------------------|
|-0-0----------8---------------|
|-0-0-12-10-12---12-10-0-10-12-|


               PM|      PM|
   |--3--|  |--3--|  |--3--|  |--3--|
   E  E  E  E  E  E  E  E  E  E  E  E    H     H
|-------------------------------------|-------------*|
|-------------------------------------|-------------*|
|-------------------------------------|-------------*|
|-------------------------------------|-------------*|
|----------10-------12-------13-12----|-12\---------*|
|-10-12-13----13-12----13-12-------13-|-12\---------*|

11. Reclamation

Still not finished, but its updated and more accurate with a few more parts added

Tabbed by:Dimerah


0:17

d#----------------------------------------------------------| - x5
a#---------3------------------------------------------------|
f#-----2-----2--------------2-------------------------------|
c#-------0----------------------------6-6-------------------|
g#-0~---------0-1p0-1p0-----------3-3-3-3-------------------|
c#-0~---------0-1p0-1p0-0-0~--0-0-3-3-3-3-------------------|(Acoustic)

                                      ^ gradually bend the 6's

0:38

d#-------------------------------------------------------------| -x5
a#------3------------------------------------------------------|
f#---2----2-------------2--------------------------------------|
c#-----0-------------------------6-6---------------------------|
g#---------------------------3-3-3-3---------------------------|
c#-0~-------0-1-0-1-0-0---0--3-3-3-3---------------------------|(Electric clean)

                                 ^ also gradually bend these 6's

0:54

d#------------|-----------------------------------------------------| -x4
a#------------|-----------------------------------------------------|
f#------------|-----------------------------------------------------|
c#------------|--7----------7-7---------7-7---------7-7-7-7-7-7---7-|
g#-3-3-3-3-3-3|--5----------5-5---------5-5---------5h6-6-6-6-6---5-|
c#-3-3-3-3-3-3|----0-0-0-0-0---0-0-0-0-0---0-0-0-0-0----------------|
   . . . . . .    . . . . .   . . . . .   . . . . .

1:11

d#----------------------------------------------------------| -x4
a#----------------------------------------------------------|
f#---------7~-----------------------------------------------|
c#---------7~------------------------6-6-6------------------|
d#-0~--0---5~--0-1-0-1-0--0----3-3-3-3-3-3------------------|
c#-0~--0-------0-1-0-1-0--0-0--3-3-3-3-3-3------------------|

1:28
                            Clean
d#-------------------------------------------------------------| -x2
a#------3------------------------------------------------------|
f#---2----2-------------2--------------------------------------|
c#-----0-------------------------6-6---------------------------|
g#---------------------------3-3-3-3---------------------------|
c#-0~-------0-1-0-1-0-0---0--3-3-3-3---------------------------|


1:34
                            Back to distortion
d#------------|-----------------------------------------------------| -x4
a#------------|-----------------------------------------------------|
f#------------|-----------------------------------------------------|
c#------------|--7----------7-7---------7-7---------7-7-7-7-7-7---7-|
g#-3-3-3-3-3-3|--5----------5-5---------5-5---------5h6-6-6-6-6---5-|
c#-3-3-3-3-3-3|----0-0-0-0-0---0-0-0-0-0---0-0-0-0-0----------------|
   . . . . . .     . . . . .   . . . . .   . . . . .


1:52

d#-----------------------------------------------|
a#-----------------------------------------------|
f#-7-7---7-7---7-7---7-7---7-7---7-7---7-7---7---|
c#-7-7-x-7-7-x-7-7-x-7-7-x-7-7-x-7-7-x-7-7-x-7-7^| - Quick half bend
d#-4-4-x-4-4-x-4-4-x-4-4-x-5-5-x-5-5-x-5-5-x-5---|
c#-4-4-x-4-4-x-4-4-x-4-4-x-5-5-x-5-5-x-5-5-x-5---|

1:57

d#----------------------------------------------------|
a#----------------------------------------------------|
f#----------------------------------------------------|
c#--10-10------------------10-10----------------------|
d#-6--6--6----------------6--6--6---------------------|
c#--------1p0-0-0-0-0-0-0---------1p0-0-0-0-0-0-------|
              . . . . . .             . . . . .


2:00

d#-----------------------------------------------|
a#-----------------------------------------------|
f#-7-7---7-7---7-7---7-7---7-7---7-7---7-7---7---|
c#-7-7-x-7-7-x-7-7-x-7-7-x-7-7-x-7-7-x-7-7-x-7-7^|
d#-4-4-x-4-4-x-4-4-x-4-4-x-5-5-x-5-5-x-5-5-x-5---|
c#-4-4-x-4-4-x-4-4-x-4-4-x-5-5-x-5-5-x-5-5-x-5---|

2:05

d#-----------------------------------------------------------|
a#-----------------------------------------------------------|
f#-----------------------------9-9-9-9-9--------9-9-9-9-9----|
c#----6-6-6-6-6----------------7-7-7-7-7--------7-7-7-7-7----|
d#----0-0-0-0-0----------------5-5-5-5-5--------7-7-7-7-7----|
c#----0-0-0-0-0---0-0-0-0-0-0------------0-0-0--7-7-7-7-7----|
                  . . . . . .            . . .


2:08

d#-----------------------------------------------|
a#-----------------------------------------------|
f#-7-7---7-7---7-7---7-7---7-7---7-7---7-7---7---|
c#-7-7-x-7-7-x-7-7-x-7-7-x-7-7-x-7-7-x-7-7-x-7-7^|
d#-4-4-x-4-4-x-4-4-x-4-4-x-5-5-x-5-5-x-5-5-x-5---|
c#-4-4-x-4-4-x-4-4-x-4-4-x-5-5-x-5-5-x-5-5-x-5---|

2:12

d#----------------------------------------------------|
a#----------------------------------------------------|
f#----------------------------------------------------|
c#--10-10------------------10-10----------------------|
d#-6--6--6----------------6--6--6---------------------|
c#--------1p0-0-0-0-0-0-0---------1p0-0-0-0-0-0-------|

2:16

d#-----------------------------------------------|-----------|
a#-----------------------------------------------|-----------|
f#-7-7---7-7---7-7---7-7---7-7---7-7---7-7---7-7-|-----------|
c#-7-7-x-7-7-x-7-7-x-7-7-x-7-7-x-7-7-x-7-7-x-7-7-|-----------|
d#-4-4-x-4-4-x-4-4-x-4-4-x-5-5-x-5-5-x-5-5-x-5-5-|--5--3--0~-|
c#-4-4-x-4-4-x-4-4-x-4-4-x-5-5-x-5-5-x-5-5-x-5-5-|--5--3--0~-|
                                                    .  .


2:20
                        Clean again
d#-------------------------------------------------------------| -x2
a#------3------------------------------------------------------|
f#---2----2-------------2--------------------------------------|
c#-----0-------------------------6-6---------------------------|
g#---------------------------3-3-3-3---------------------------|
c#-0~-------0-1-0-1-0-0---0--3-3-3-3---------------------------|


2:28
                            Back to distortion again
d#------------|-----------------------------------------------------| -x4
a#------------|-----------------------------------------------------|
f#------------|-----------------------------------------------------|
c#------------|--7----------7-7---------7-7---------7-7-7-7-7-7---7-|
g#-3-3-3-3-3-3|--5----------5-5---------5-5---------5h6-6-6-6-6---5-|
c#-3-3-3-3-3-3|----0-0-0-0-0---0-0-0-0-0---0-0-0-0-0----------------|
   . . . . . .     . . . . .   . . . . .   . . . . .

2:45

d#----------------------------------------------------------| -x4
a#----------------------------------------------------------|
f#---------7~-----------------------------------------------|
c#---------7~------------------------6-6-6------------------|
d#-0~--0---5~--0-1-0-1-0--0----3-3-3-3-3-3------------------|
c#-0~--0-------0-1-0-1-0--0-0--3-3-3-3-3-3------------------|

3:02

d#-----------------------------------------------|
a#-----------------------------------------------|
f#-7-7---7-7---7-7---7-7---7-7---7-7---7-7---7---|
c#-7-7-x-7-7-x-7-7-x-7-7-x-7-7-x-7-7-x-7-7-x-7-7^|
d#-4-4-x-4-4-x-4-4-x-4-4-x-5-5-x-5-5-x-5-5-x-5---|
c#-4-4-x-4-4-x-4-4-x-4-4-x-5-5-x-5-5-x-5-5-x-5---|

3:05

d#----------------------------------------------------|
a#----------------------------------------------------|
f#----------------------------------------------------|
c#--10-10------------------10-10----------------------|
d#-6--6--6----------------6--6--6---------------------|
c#--------1p0-0-0-0-0-0-0---------1p0-0-0-0-0-0-------|

3:08

d#-----------------------------------------------|
a#-----------------------------------------------|
f#-7-7---7-7---7-7---7-7---7-7---7-7---7-7---7---|
c#-7-7-x-7-7-x-7-7-x-7-7-x-7-7-x-7-7-x-7-7-x-7-7^|
d#-4-4-x-4-4-x-4-4-x-4-4-x-5-5-x-5-5-x-5-5-x-5---|
c#-4-4-x-4-4-x-4-4-x-4-4-x-5-5-x-5-5-x-5-5-x-5---|

3:13

d#-----------------------------------------------------------|
a#-----------------------------------------------------------|
f#-----------------------------9-9-9-9-9--------9-9-9-9-9----|
c#----6-6-6-6-6----------------7-7-7-7-7--------7-7-7-7-7----|
d#----0-0-0-0-0----------------5-5-5-5-5--------7-7-7-7-7----|
c#----0-0-0-0-0---0-0-0-0-0-0------------0-0-0--7-7-7-7-7----|
                  . . . . . .            . . .

3:17

d#-----------------------------------------------|
a#-----------------------------------------------|
f#-7-7---7-7---7-7---7-7---7-7---7-7---7-7---7---|
c#-7-7-x-7-7-x-7-7-x-7-7-x-7-7-x-7-7-x-7-7-x-7-7^|
d#-4-4-x-4-4-x-4-4-x-4-4-x-5-5-x-5-5-x-5-5-x-5---|
c#-4-4-x-4-4-x-4-4-x-4-4-x-5-5-x-5-5-x-5-5-x-5---|

3:22

d#----------------------------------------------------|
a#----------------------------------------------------|
f#----------------------------------------------------|
c#--10-10------------------10-10----------------------|
d#-6--6--6----------------6--6--6---------------------|
c#--------1p0-0-0-0-0-0-0---------1p0-0-0-0-0-0-------|

3:25

d#----------------------------------------------|
a#----------------------------------------------|
f#-7-7---7-7---7-7---7-7---7-7---7-7---7-7---7-7|
c#-7-7-x-7-7-x-7-7-x-7-7-x-7-7-x-7-7-x-7-7-x-7-7|
d#-4-4-x-4-4-x-4-4-x-4-4-x-5-5-x-5-5-x-5-5-x-5-5|
c#-4-4-x-4-4-x-4-4-x-4-4-x-5-5-x-5-5-x-5-5-x-5-5|

3:29

d#----|-------------------------------------|
a#----|-------------------------------------|
f#----|-------------------------------------|
c#----|-------------------------------------|
d#-3-1|-00---00-00---00---00-00---00---00-00|
c#-3-1|-00---00-00---00---00-00---00---00-00|

3:57

d#------|----------------------------------------|
a#------|----------------------------------------|
f#------|----------------------------------------|
c#--/---|----------------------------------------|
d#--/--5|--------5p3-----6p5--------8p5---6-5-6-5|
c#------|-000000-----000-----000000----000-------|
          ......     ...     ......    ...

^^^^^^^^^^^^^^^^^^^^^^^^^^^^^^^^^^^^^^^^^^^^^^^^^^
Ive seen a youtube video of them playing this, and i saw that willie
was actually playing the above riff like this. You can play it either way.
vvvvvvvvvvvvvvvvvvvvvvvvvvvvvvvvvvvvvvvvvvvvvvvvvvvvvvvvvvvvvvvvvvvvvvvvv
d#------|---------------------------------------------------------------|
a#------|---------------------------------------------------------------|
f#------|---------------------------------------------------------------|
c#--/---|---------------------------------------------------------------|
d#--/---|---------------------------------------------------------------|
c#----12|-000000--12p10---000--13p12---000000--15p13--000--13-12-13-12--|
          ......          ...          ......         ...


4:21

d#----------------|---------------------------------------------------------------| -x4
a#----------------|---------------------------------------------------------------|
f#------------7---|--------------------------------------9-9--------9-9-------9---|
c#-------------7--|-10-10b---------10-10b---------10-----7-7--------7-7-------7---|
d#--6--5--3-----5-|-7--7-b---------7--7-b---------7------5-5--------5-5-------5---|
c#--6--5--3-------|--------0-0-000--------0-0-000---00000----0-0-000----00000-----|
    .  .  .                . . ...        . . ...   .....    . . ...    .....

4:52

d#---------------------------------------------------------|-x7
a#---------------------------------------------------------|
f#--7-7b-------7-7b-------7--------------------------------|
c#-----------------------------7-----5--5/-----------------|
d#--5-5b-------5-5b-------5----3-----3--3/-----------------|
c#-------0-000------0-000---00---000-------0-542-0-653-0---|
         . ...      . ...   ..   ...       . ... . ... .

         Lead over above riff

d#---------------------------------------|
a#-----------10--------------------------|
f#--/10-------------11-------------------|
c#--------------------------10b12~~~b13/-|
d#---------------------------------------|
c#---------------------------------------|

And Thats It
im happy to be the first (And Only!) person to contribute 
these fine tabs for this amazing album.

Please Rate!
later
----JAKE

            
            
Suggest correction
Creating personal tab
Creating personal tab
You can edit any tab online and save it as your Personal.

You can edit, replace or remove any tab part or add personal notes – all changes will be seen only by you.

Personal tabs can be accessed anytime from any device, even offline.
Learn more »
comments
print report bad tab
4 comments total. Showing first comments.
0 reply
Dimerah 63 May 16, 2009 10:28 PM

Thanks alot man for throwin mine in there, im going to eventually get a better one up there, theres alot to be changed, so ill let you know when i put it up if you feel like editing it out

0 reply
hatchetman515 105 May 18, 2009 06:26 PM

sure man
no problem
ive used alot of your tabs for alot of my favorite songs
thanks for lettin me use it w/o you getting pissed

0 reply
LoG94 10 Oct 02, 2011 10:39 AM

Any chance of listing the tunings in a comment or at the top of the tab?

guest
You may want to rate the tab now too:
select rating
Wanna post a correction for this tab? Suggest correction