Oops, an error
Loading. Please wait.

Bled To Oblivion tab

version 1
version 1

Whole song

Interactive

350 views 1 this week
1 commentread comment
1 2 3 4 5
2 more votes to show rating
add to favorites
×
Save as Personal and add changes to this tab that will be seen only by you. Learn more ›
×
You can save this tab as Personal to edit and correct it or add notes. All changes will be seen only by you. Learn more »
launch autoscroll
font size
0
reset
how to read this tab
guitar tuner
edit
Autoscroll
slow
fast
+/-
esc
set tempo
stop
Author
LANDMINE MARATHON
BLED TO OBLIVION
RUSTED EYES AWAKE

Transcribed by Lukasz virious Lukasik
(this is my first tab, so please be gentle ;))

 Words and Music by Landmine Marathon


      T T T T T T T T T T T T T T T T T T T T T T T T T T T T  T  T  T  T  
C#||----------------------------------------------------------------------|
G#||----------------------------------------------------------------------|
E ||----------------------------------------------------------------------|
B ||----------------------------------------------------------------------|
F#||----------8-8-7-7-8-8-8-8-8-8-8-8---------8-8-8-8-7-7-7-7-10-10-10-10-|
B ||--0-0-0-L-------------------------0-0-0-L-----------------------------|


  T T T T T T T T T T T T T T T T T T T T T T T T T T T T T T T T  4x
-------------------------------------------------------------------||
-------------------------------------------------------------------||
------------------------------------------------------------------*||
------------------------------------------------------------------*||
----------8-8-7-7-8-8-8-8-8-8-8-8---------8-8-8-8-7-7-7-7-4-4-4-4--||
--0-0-0-L-------------------------0-0-0-L--------------------------||


   T T T T T T T T T T T T T T T T T T T T T T T T T T T T T T T T  
-------------------------------------------------------------------|
-------------------------------------------------------------------|
*------------------------------------------------------------------|
*------------------------------------------------------------------|
---5-L-L---------------------------------5-L-L-L-3-L-L-L-5-L-L-L-6-|
---------0-0-0---0-0-0---0-0-0---0-0-0-----------------------------|


  T T T T T T T T T T T T T T T T T T T T T T T T T T T T T T T T  
------------------------------------------------------------------|
------------------------------------------------------------------|
------------------------------------------------------------------|
------------------------------------------------------------------|
--L-L-L---------------------------------6-L-L-L-5-L-L-L-6-L-L-L-5-|
--------0-0-0---0-0-0---0-0-0---0-0-0-----------------------------|


  T T T T T T T T T T T T T T T T T T T T T T T T T T T T T T T T  
------------------------------------------------------------------|
------------------------------------------------------------------|
------------------------------------------------------------------|
------------------------------------------------------------------|
--L-L-L---------------------------------5-L-L-L-3-L-L-L-5-L-L-L-6-|
--------0-0-0---0-0-0---0-0-0---0-0-0-----------------------------|


  T T T T T T T T T T T T  T T T T T T T T T T T T T T T T T T T T    
--------------------------------------------------------------------||
--------------------------------------------------------------------||
-------------------------------------------------------------------*||
-------------------------------------------------------------------*||
--L-L-L-5-L-L-L-6-L-L-L-9~-L-L-L-L-L-L-L-L-L-L-L-L-L-L-L-L-L-L-L-L--||
--------------------------------------------------------------------||


  T T T T T T T T T T T T T T T T T T T T T T T T T T T T T T T T  
------------------------------------------------------------------|
------------------------------------------------------------------|
------------------------------------------------------------------|
------------------------------------------------------------------|
--5-L-L---------------------------------5-L-L-L-3-L-L-L-5-L-L-L-6-|
--------0-0-0---0-0-0---0-0-0---0-0-0-----------------------------|


  T T T T T T T T T T T T T T T T T T T T T T T T T T T T T T T T  
------------------------------------------------------------------|
------------------------------------------------------------------|
------------------------------------------------------------------|
------------------------------------------------------------------|
--L-L-L---------------------------------6-L-L-L-5-L-L-L-6-L-L-L-5-|
--------0-0-0---0-0-0---0-0-0---0-0-0-----------------------------|


  T T T T T T T T T T T T T T T T T T T T T T T T T T T T T T T T  
------------------------------------------------------------------|
------------------------------------------------------------------|
------------------------------------------------------------------|
------------------------------------------------------------------|
--L-L-L---------------------------------5-L-L-L-3-L-L-L-5-L-L-L-6-|
--------0-0-0---0-0-0---0-0-0---0-0-0-----------------------------|


  T T T T T T T T T T T T T T T T T T T T T T T  
------------------------------------------------|
------------------------------------------------|
------------------------------------------------|
------------------------------------------------|
--L-L-L-5-L-L-L-3-L-L-L-5-L-L-L-3-L-L-L-1-L-L-L-|
------------------------------------------------|


    T T T T T T T T T T T T T T T T T T T T T T T T T T T T  T  T  T  T  
|-----------------------------------------------------------------------|
|-----------------------------------------------------------------------|
|*----------------------------------------------------------------------|
|*----------------------------------------------------------------------|
|-----------8-8-7-7-8-8-8-8-8-8-8-8---------8-8-8-8-7-7-7-7-10-10-10-10-|
|---0-0-0-L-------------------------0-0-0-L-----------------------------|


  T T T T T T T T T T T T T T T T T T T T T T T T T T T T T T T T  4x
-------------------------------------------------------------------||
-------------------------------------------------------------------||
------------------------------------------------------------------*||
------------------------------------------------------------------*||
----------8-8-7-7-8-8-8-8-8-8-8-8---------8-8-8-8-7-7-7-7-4-4-4-4--||
--0-0-0-L-------------------------0-0-0-L--------------------------||


   T T T T T T T T T T T T T T T T T T T T T T T T T T T T T T T T  
-------------------------------------------------------------------|
-------------------------------------------------------------------|
*------------------------------------------------------------------|
*------------------------------------------------------------------|
---5-L-L---------------------------------5-L-L-L-3-L-L-L-5-L-L-L-6-|
---------0-0-0---0-0-0---0-0-0---0-0-0-----------------------------|


  T T T T T T T T T T T T T T T T T T T T T T T T T T T T T T T T  
------------------------------------------------------------------|
------------------------------------------------------------------|
------------------------------------------------------------------|
------------------------------------------------------------------|
--L-L-L---------------------------------6-L-L-L-5-L-L-L-6-L-L-L-5-|
--------0-0-0---0-0-0---0-0-0---0-0-0-----------------------------|


  T T T T T T T T T T T T T T T T T T T T T T T T T T T T T T T T  
------------------------------------------------------------------|
------------------------------------------------------------------|
------------------------------------------------------------------|
------------------------------------------------------------------|
--L-L-L---------------------------------5-L-L-L-3-L-L-L-5-L-L-L-6-|
--------0-0-0---0-0-0---0-0-0---0-0-0-----------------------------|


  T T T T T T T T T T T T  T T T T T T T T T T T T T T T T T T T T    
--------------------------------------------------------------------||
--------------------------------------------------------------------||
-------------------------------------------------------------------*||
-------------------------------------------------------------------*||
--L-L-L-5-L-L-L-6-L-L-L-9~-L-L-L-L-L-L-L-L-L-L-L-L-L-L-L-L-L-L-L-L--||
--------------------------------------------------------------------||


  T T T T T T T T T T T T T T T T T T T T T T T T T T T T T T T T  
------------------------------------------------------------------|
------------------------------------------------------------------|
------------------------------------------------------------------|
------------------------------------------------------------------|
--5-L-L---------------------------------5-L-L-L-3-L-L-L-5-L-L-L-6-|
--------0-0-0---0-0-0---0-0-0---0-0-0-----------------------------|


  T T T T T T T T T T T T T T T T T T T T T T T T T T T T T T T T  
------------------------------------------------------------------|
------------------------------------------------------------------|
------------------------------------------------------------------|
------------------------------------------------------------------|
--L-L-L---------------------------------6-L-L-L-5-L-L-L-6-L-L-L-5-|
--------0-0-0---0-0-0---0-0-0---0-0-0-----------------------------|


  T T T T T T T T T T T T T T T T T T T T T T T T T T T T T T T T  
------------------------------------------------------------------|
------------------------------------------------------------------|
------------------------------------------------------------------|
------------------------------------------------------------------|
--L-L-L---------------------------------5-L-L-L-3-L-L-L-5-L-L-L-6-|
--------0-0-0---0-0-0---0-0-0---0-0-0-----------------------------|


  T T T T T T T T T T T T T T T T T T T T T T T  
------------------------------------------------|
------------------------------------------------|
------------------------------------------------|
------------------------------------------------|
--L-L-L-5-L-L-L-3-L-L-L-5-L-L-L-3-L-L-L-1-L-L-L-|
------------------------------------------------|


    T T T T T T T T T T T T T T T T T T T T T T T T T T T T  T T  T T  
|---------------------------------------------------------------------|
|---------------------------------------------------------------------|
|*--------------------------------------------------------------------|
|*--------------------------------------------------------------------|
|-----------8-L-7-L-8-L-L-L-L-L-L-L---------8-L-L-L-7-L-L-L-10-L--L-L-|
|---0-L-----------------------------0-L-------------------------------|


  T T T T T T T T T T T T T T T T T T T T T T T T T T T T T T T T  
------------------------------------------------------------------|
------------------------------------------------------------------|
------------------------------------------------------------------|
------------------------------------------------------------------|
----------8-L-7-L-8-L-L-L-L-L-L-L---------8-L-L-L-7-L-L-L-4-L-L-L-|
--0-L-----------------------------0-L-----------------------------|


  T T T T T T T T T  T T T T T T T T T T T T T T T T T T T  T T  T T  
---------------------------------------------------------------------|
---------------------------------------------------------------------|
---------------------------------------------------------------------|
---------------------------------------------------------------------|
----------8-L-7-L-8~-L-L-L-L-L-L-L---------8-L-L-L-7-L-L-L-10-L--L-L-|
--0-L------------------------------0-L-------------------------------|


  T T T T T T T T T  T T T T T T T T T T T T T T T T T T T T T T T    
--------------------------------------------------------------------||
--------------------------------------------------------------------||
-------------------------------------------------------------------*||
-------------------------------------------------------------------*||
----------8-L-7-L-8~-L-L-L-L-L-L-L---------8-L-L-L-7-L-L-L-4-L-L-L--||
--0-L------------------------------0-L------------------------------||


   T T T T T T T T T T T T T T T T T T T T T T T T T T T T T T T T  
-------------------------------------------------------------------|
-------------------------------------------------------------------|
*------------------------------------------------------------------|
*------------------------------------------------------------------|
---8-L-L-----------8-L-7-L-8-L-L-----------8-L-7-L-8-L-L-----------|
-----------0-L-0-L-----------------0-L-0-L-----------------0-L-0-L-|


  T T T T T T T T T T T T T T T T  4x
-----------------------------------||
-----------------------------------||
----------------------------------*||
----------------------------------*||
--8-8-8-8-7-7-7-7-5-5-5-5-7-7-7-7--||
-----------------------------------||


   T T T T T T T T T T T T T T T T T T T T T T T T T T T T T T T T  
---L-------------------------L-------------------------------------|
-------------------------------------------------------------------|
*------------------------------------------------------------------|
*------------------------------------------------------------------|
-------------------------------------------------------------------|
---0-L-L-L-L-L-0-L-0-L-L-L-L-3-L-L-L-L-L-3-L-3-L-L-L-L-5-L-L-L-L-L-|


  T T T T T T T T T T T T T T T T T T T  4x
-----------------------------------------||
-----------------------------------------||
----------------------------------------*||
----------------------------------------*||
-----------------------------------------||
--5-L-5-L-L-L-L-7-L-L-L-5-L-L-L-3-L-L-L--||


   T T T T T T T T T T T T T T T T T T T T T T T T T T T T T T T T  
-------------------------------------------------------------------|
-------------------------------------------------------------------|
*------------------------------------------------------------------|
*------------------------------------------------------------------|
---8-L-L-----------8-L-7-L-8-L-L-----------8-L-7-L-8-L-L-----------|
-----------0-L-0-L-----------------0-L-0-L-----------------0-L-0-L-|


  T T T T T T T T T T T T T T T T  4x
-----------------------------------||
-----------------------------------||
----------------------------------*||
----------------------------------*||
--8-8-8-8-7-7-7-7-5-5-5-5-7-7-7-7--||
-----------------------------------||


   T T T T T T T T T T T T T T T T T  T T T T T T T T T T T T T T  T  
---------------------------------------------------------------------|
---------------------------------------------------------------------|
*----L---------------------------------------------------------------|
*--------------------------------------------------------------------|
---------------5-L-8-L-7-L-8-L-L-L-L-10-L-8-L-7-L--------------------|
---0-L-L-L-L-L------------------------------------8-L-L-L-L-L-8-L-10-|


  T T T T T T T T T T T T T T T  3x
---------------------------------||
---------------------------------||
--------------------------------*||
--------------------------------*||
---------------------------------||
--L-8-L-7-L-L-L-L-L-3-L-L-L-L-L--||


  T T T T T T T T T T T T T T T T T  T T T T T T T T T T T T T T  T  
--------------------------------------------------------------------|
--------------------------------------------------------------------|
--------------------------------------------------------------------|
--------------------------------------------------------------------|
--------------5-L-8-L-7-L-8-L-L-L-L-10-L-8-L-7-L--------------------|
--0-L-L-L-L-L------------------------------------8-L-L-L-L-L-8-L-10-|


  T T T T T T T T T T T T T T T T T T T T T T T T T T T T T T T T  
------------------------------------------------------------------|
--------------------------------------------------L-L-L-L-L-L-L-L-|
------------------------------------------------------------------|
------------------------------------------------------------------|
------------------------------------------------------------------|
--L-8-L-7-L-L-L-L-L-3-L-L-L-L-L-0-L-L-L-L-L-L-L-L-L-L-L-L-L-L-L-L-|


    T T T T T T T T T T T T T T T T T T T T T T T T T T T T  T  T  T  T  
|-----------------------------------------------------------------------|
|-----------------------------------------------------------------------|
|*----------------------------------------------------------------------|
|*----------------------------------------------------------------------|
|-----------8-8-7-7-8-8-8-8-8-8-8-8---------8-8-8-8-7-7-7-7-10-10-10-10-|
|---0-0-0-L-------------------------0-0-0-L-----------------------------|


  T T T T T T T T T T T T T T T T T T T T T T T T T T T T T T T T    
-------------------------------------------------------------------||
-------------------------------------------------------------------||
------------------------------------------------------------------*||
------------------------------------------------------------------*||
----------8-8-7-7-8-8-8-8-8-8-8-8---------8-8-8-8-7-7-7-7-4-4-4-4--||
--0-0-0-L-------------------------0-0-0-L--------------------------||


  T T T T T T T T T  T T T T T T T T T T T T T T T T T T T  T T  T T  
---------------------------------------------------------------------|
---------------------------------------------------------------------|
---------------------------------------------------------------------|
---------------------------------------------------------------------|
----------8-L-7-L-8~-L-L-L-L-L-L-L---------8-L-L-L-7-L-L-L-10-L--L-L-|
--0-L------------------------------0-L-------------------------------|


  T T T T T T T T T  T T T T T T T T T T T T T T T T T T T T T T T  
-------------------------------------------------------------------|
-------------------------------------------------------------------|
-------------------------------------------------------------------|
-------------------------------------------------------------------|
----------8-L-7-L-8~-L-L-L-L-L-L-L---------8-L-L-L-7-L-L-L-4-L-L-L-|
--0-L------------------------------0-L-----------------------------|


  T T T T T T T T T T T T T T T T T T T T T T T T T T T T T T T T   
------------------------------------------------------------------||
------------------------------------------------------------------||
------------------------------------------------------------------||
--------------5---7---5-------------------------------------------||
--5---7---8---------------8---7-----------------------------------||
------------------------------------------------------------------||




Duration Legend
---------------
W - whole
H - half
Q - quarter
E - 8th
S - 16th
T - 32nd
X - 64th
. - note dotted
|-n-|  - n-tuplets


Tablature Legend
----------------
L - tied note
x - dead note
g - grace note
(n) - ghost note
> - accentuded note
NH - natural harmonic
AH - artificial harmonic
TH - tapped harmonic
SH - semi harmonic
PH - pitch harmonic
h - hammer on
p - pull off
b - bend
br - bendRelease
pb - preBend
pbr - preBendRelease
brb - bendReleaseBend
\n/ - tremolo bar dip
\n - tremolo bar dive
-/n - tremolo bar Release up
/n\ - tremolo bar inverted dip
/n - tremolo bar return
-\n - tremolo bar Release down
S - shift slide
s - legato slide
/ -  slide into from below or out of upwards
\ -  slide into from above or out of downwards
~ - vibrato
W - wide vibrato
tr - trill
TP - tremolo picking
T - tapping
S - slap
P - pop
< - fade in
^ - brush up
v - brush down

            
            
Suggest correction
Creating personal tab
Creating personal tab
You can edit any tab online and save it as your Personal.

You can edit, replace or remove any tab part or add personal notes – all changes will be seen only by you.

Personal tabs can be accessed anytime from any device, even offline.
Learn more »
Give kudos to tab author, rate the tab!
1 2 3 4 5
comments
print report bad tab
1 comment total.
0 reply
SinisterOctober 202 Jul 03, 2016 01:30 PM

Excellent tab, but the tuning is B standard, and the time signature changes, so there's only slight issue, but otherwise it's very well.

guest
You may want to rate the tab now too:
select rating
Wanna post a correction for this tab? Suggest correction