Oops, an error
Loading. Please wait.

Falling In Love At A Coffee Shop Acoustic tab

version 1
version 1

Whole song

Interactive

195,516 views 123 this week
10 commentsread comments
1 2 3 4 5
x 69
add to favorites
×
Save as Personal and add changes to this tab that will be seen only by you. Learn more ›
×
You can save this tab as Personal to edit and correct it or add notes. All changes will be seen only by you. Learn more »
launch autoscroll
font size
0
reset
how to read this tab
guitar tuner
edit
Autoscroll
slow
fast
+/-
esc
set tempo
stop
-------------------------------------------------------------------------------
                Falling In Love At a Coffee Shop - Landon Pigg
-------------------------------------------------------------------------------
Tabbed by: Blosr
Email: blosrboi@gmail.com

Tuning: Standard



This is My Personal Interpretation of This song. If you cannot play the bass line, just ignore it.


e|-0-----2---------------------------------------------------------------------------------------|
B|-------------4-----5-----2-----4-----0---------------------------------------------------------|
G|-------------------------------------------2-----1-----1-----1-----1-----1-----1-----1-----1---| 
D|-----------------------------------------------------------------------------------------------|
A|-----------------------------------------------------------------------------------------------|
E|-0--0-----0--0--0-----0--0--0-----0--0--0-----0--0--0-----0--0--0-----0--0--0-----0--0--0-----0|
   *Play This Line x2*

e|-0-----2--------------------------------------|
B|-------------4-----5-----2-----4-----0--------|
G|-------------------------------------------2--|
D|----------------------------------------------|
A|----------------------------------------------|
E|-0--0-----0--0--0-----0--0--0-----0--0--0-----|

e|-------------------------------------------------------------------------------|
B|-------------------------------------------------------------------------------|
G|----1-----1------1-----1------1-----1------1-----1------1-----1------1-----1---|
D|-------------------------------------------------------------------------------|
A|-------------------------------------------------------------------------------|
E|-0--0--0------0--0--0------0--0--0------0--0--0------0--0--0------0--0--0------|

                                  I  think  that  possibly  maybe  I'm  falling  for
e|-------------------------------------------------------------------------------|
B|-------------------------------------------------------------------------------|
G|----1-----1------1-----1------1-----1------1-----1------1-----1------1-----1---|
D|-------------------------------------------------------------------------------|
A|-------------------------------------------------------------------------------|
E|-0--0--0------0--0--0------0--0--0------0--0--0------0--0--0------0--0--0------|

you                                         
e|-0-----2--------------------------------------|
B|-------------4-----5-----2-----4-----0--------|
G|-------------------------------------------2--|
D|----------------------------------------------|
A|----------------------------------------------|
E|-0--0-----0--0--0-----0--0--0-----0--0--0-----|
    
     Yes there's a chance that I've fallen quite hard over
e|-----------------------------------------------------|
B|-----------------------------------------------------|
G|----1-----1------1-----1------1-----1------1-----1---|
D|-----------------------------------------------------|
A|-----------------------------------------------------|
E|-0--0--0------0--0--0------0--0--0------0--0--0------|

you
e|-0-----2----------------------------------------|
B|-------------4-----5-----2-----4-----0----------|
G|-------------------------------------------2----|
D|------------------------------------------------|
A|------------------------------------------------|
E|-0--0-----0--0--0-----0--0--0-----0--0--0-----0-|

   I've seen the paths that your eyes wander down, I want to come too
e|-------------------------4-----------4----------------------------------------------------------|
B|-2-----------2-----------------------------------4-----------4-----------5-----------5----------|
G|-------2-----------2-----------2-----------2-----------2-----------2-----------2-----------2----|
D|------------------------------------------------------------------------------------------------|
A|-0--0-----0--0--0-----0--0--0-----0--0--0-----0--0--0-----0--0--0-----0--0--0-----0--0--0-----0-|
E|------------------------------------------------------------------------------------------------|

   I think that possibly, maybe I'm falling for
e|------------------------------------------------|
B|-0-----------0-----------4-----------4----------|
G|-------1-----------1-----------4-----------4----|
D|------------------------------------------------|
A|------------------------------------------------|
E|-0--0-----0--0--0-----0--0--0-----0--0--0-----0-|

you
e|------------------------------------------------|
B|-0-----------0-----------0-----------0----------|
G|-------1-----------1-----------1-----------1----|
D|------------------------------------------------|
A|------------------------------------------------|
E|-0--0-----0--0--0-----0--0--0-----0--0--0-----0-|

e|------------------------------------------------|
B|-0-----------0-----------4-----------4----------|
G|-------1-----------1-----------4-----------4----|
D|------------------------------------------------|
A|------------------------------------------------|
E|-0--0-----0--0--0-----0--0--0-----0--0--0-----0-|

e|------------------------------------------------|
B|-0-----------0-----------0-----------0----------|
G|-------1-----------1-----------1-----------1----|
D|------------------------------------------------|
A|------------------------------------------------|
E|-0--0-----0--0--0-----0--0--0-----0--0--0-----0-|

   No one understands me quite like you do, through all of the chadowy corners of me
e|----------------------------------------------------------------------------------|
B|----------------------------------------------------------------------------------|
G|----------------------------------------------------------------------------------|
D|-4----4---4-4----4---4-4/6----6---6-6----6-6/7----7---7-7----7-7/9---9----9---9-9-|
A|-4----4---4-4----4---4-4/6----6---6-6----6-6/7----7---7-7----7-7/9---9----9---9-9-|
E|-2----2---2-2----2---2-2/4----4---4-4----4-4/5----5---5-5----5-5/7---7----7---7-7-|
   *Strum Pattern : Down, Up, Up, Down, Up, Up.*

   I never knew            just what it was    about this old coffee shop I love so much  |   
e|------------------------------------------------------------------------------------|   |  
B|------------------------------------------------------------------------------------|   |  
G|------------------------------------------------------------------------------------|   |   
D|-4----4---4-4----4---4-4/6----6---6-6----6-6/7----7---7-7----7---7-7----7---7-7---7-|   |   
A|-4----4---4-4----4---4-4/6----6---6-6----6-6/7----7---7-7----7---7-7----7---7-7---7-|   |  
E|-2----2---2-2----2---2-2/4----4---4-4----4-4/5----5---5-5----5---5-5----5---5-5---5-|   |  
                                                                                          |  *x2*  
   All   of   the   while  I    never      knew                                           |     
e|------------------------------------------------------------------------------------|   | 
B|------------------------------------------------------------------------------------|   |  
G|------------------------------------------------------------------------------------|   |   
D|-4----4---4-4----4---4-4/6----6---6-6----6-6/7----7---7-7----7---7-7----7---7-7---7-|   |  
A|-4----4---4-4----4---4-4/6----6---6-6----6-6/7----7---7-7----7---7-7----7---7-7---7-|   | 
E|-2----2---2-2----2---2-2/4----4---4-4----4-4/5----5---5-5----5---5-5----5---5-5---5-|   |
                                                                                         


e|-0-----2---------------------------------------------------------------------------------------|
B|-------------4-----5-----2-----4-----0---------------------------------------------------------|
G|-------------------------------------------2-----1-----1-----1-----1-----1-----1-----1-----1---| 
D|-----------------------------------------------------------------------------------------------|
A|-----------------------------------------------------------------------------------------------|
E|-0--0-----0--0--0-----0--0--0-----0--0--0-----0--0--0-----0--0--0-----0--0--0-----0--0--0-----0|

e|-0-----2-----------------------------------------------------2-----0---------------------------|
B|-------------4-----5-----2-----4-----0-----------------0---------------------------------------|
G|-------------------------------------------2-----1-----------------------2-----2-----2-----2---| 
D|-----------------------------------------------------------------------------------------------|
A|-----------------------------------------------------------------------------------------------|
E|-0--0-----0--0--0-----0--0--0-----0--0--0-----0--0--0-----0--0--0-----0--0--0-----0--0--0-----0|

e|-------------------------------------------------|
B|-------------------------------------------------|
G|-1-----1-----1-----1-----1-----1-----1-----1-----|
D|-------------------------------------------------|
A|-------------------------------------------------|
E|-0--0-----0--0--0-----0--0--0-----0--0--0-----0--|

   I think that possibly, maybe, I'm falling for
e|-------------------------------------------------|
B|-------------------------------------------------|
G|-1-----1-----1-----1-----1-----1-----1-----1-----|
D|-------------------------------------------------|
A|-------------------------------------------------|
E|-0--0-----0--0--0-----0--0--0-----0--0--0-----0--|

you                                                Yes there's a chance that I've fallen quite hard over
e|-0-----2---------------------------------------------------------------------------------------|
B|-------------4-----5-----2-----4-----0---------------------------------------------------------|
G|-------------------------------------------2-----1-----1-----1-----1-----1-----1-----1-----1---| 
D|-----------------------------------------------------------------------------------------------|
A|-----------------------------------------------------------------------------------------------|
E|-0--0-----0--0--0-----0--0--0-----0--0--0-----0--0--0-----0--0--0-----0--0--0-----0--0--0-----0|

you
e|-0-----2----------------------------------------|
B|-------------4-----5-----2-----4-----0----------|
G|-------------------------------------------2----|
D|------------------------------------------------|
A|------------------------------------------------|
E|-0--0-----0--0--0-----0--0--0-----0--0--0-----0-|

   I've seenthewatersthat makeyoureyes shine,   now I'm shining too 
e|-------------------------4-----------4----------------------------------------------------------|
B|-2-----------2-----------------------------------4-----------4-----------5-----------5----------|
G|-------2-----------2-----------2-----------2-----------2-----------2-----------2-----------2----|
D|------------------------------------------------------------------------------------------------|
A|-0--0-----0--0--0-----0--0--0-----0--0--0-----0--0--0-----0--0--0-----0--0--0-----0--0--0-----0-|
E|------------------------------------------------------------------------------------------------|

Because, oh because
e|------------------------------------------------|
B|-0-----------0-----------0-----------0----------|
G|-------1-----------1-----------1-----------1----|
D|------------------------------------------------|
A|------------------------------------------------|
E|-0--0-----0--0--0-----0--0--0-----0--0--0-----0-|

I've  fallen  quite  hard  over  you
e|------------------------------------------------|
B|-0-----------0-----------4-----------4----------|
G|-------1-----------1-----------4-----------4----|
D|------------------------------------------------|
A|------------------------------------------------|
E|-0--0-----0--0--0-----0--0--0-----0--0--0-----0-|

e|------------------------------------------------|
B|-0-----------0-----------0-----------0----------|
G|-------1-----------1-----------1-----------1----|
D|------------------------------------------------|
A|------------------------------------------------|
E|-0--0-----0--0--0-----0--0--0-----0--0--0-----0-|
 

   If I didn't know you,   I'd rather not know. If I couldn't have you, I'd rather be alone
e|----------------------------------------------------------------------------------|
B|----------------------------------------------------------------------------------|
G|----------------------------------------------------------------------------------|
D|-4----4---4-4----4---4-4/6----6---6-6----6-6/7----7---7-7----7-7/9---9----9---9-9-|
A|-4----4---4-4----4---4-4/6----6---6-6----6-6/7----7---7-7----7-7/9---9----9---9-9-|
E|-2----2---2-2----2---2-2/4----4---4-4----4-4/5----5---5-5----5-5/7---7----7---7-7-|

   I never knew            just what it was    about this old coffee shop I loved so much | 
e|------------------------------------------------------------------------------------|   |
B|------------------------------------------------------------------------------------|   |
G|------------------------------------------------------------------------------------|   |
D|-4----4---4-4----4---4-4/6----6---6-6----6-6/7----7---7-7----7---7-7----7---7-7---7-|   |
A|-4----4---4-4----4---4-4/6----6---6-6----6-6/7----7---7-7----7---7-7----7---7-7---7-|   |
E|-2----2---2-2----2---2-2/4----4---4-4----4-4/5----5---5-5----5---5-5----5---5-5---5-|   |
                                                                                          |  *x2* 
   All of the while        I never knew                                                   | 
e|------------------------------------------------------------------------------------|   |
B|------------------------------------------------------------------------------------|   |
G|------------------------------------------------------------------------------------|   |
D|-4----4---4-4----4---4-4/6----6---6-6----6-6/7----7---7-7----7---7-7----7---7-7---7-|   |
A|-4----4---4-4----4---4-4/6----6---6-6----6-6/7----7---7-7----7---7-7----7---7-7---7-|   |
E|-2----2---2-2----2---2-2/4----4---4-4----4-4/5----5---5-5----5---5-5----5---5-5---5-|   |

  All of the while                       All of the while                    It
e|------------------------------------------------------------------------------|
B|------------------------------------------------------------------------------|
G|------------------------------------------------------------------------------|
D|-7----7---7-7----7---7-7----7---7-7----7-7----7---7-7----7-7/9---9----9---9-9-|
A|-7----7---7-7----7---7-7----7---7-7----7-7----7---7-7----7-7/9---9----9---9-9-|
E|-5----5---5-5----5---5-5----5---5-5----5-5----5---5-5----5-5/7---7----7---7-7-|

was you
e|-0-----2-----------------------------------------------------2-----0---------------------------|
B|-------------4-----5-----2-----4-----0-----------------0---------------------------------------|
G|-------------------------------------------2-----1-----------------------2-----2-----2-----2---| 
D|-----------------------------------------------------------------------------------------------|
A|-----------------------------------------------------------------------------------------------|
E|-0--0-----0--0--0-----0--0--0-----0--0--0-----0--0--0-----0--0--0-----0--0--0-----0--0--0-----0|

e|-0-----2-----------------------------------------------------2-----0---------------------------|
B|-------------4-----5-----2-----4-----0-----------------0---------------------------------------|
G|-------------------------------------------2-----1-----------------------1-----1-----1-----1---| 
D|-----------------------------------------------------------------------------------------------|
A|-----------------------------------------------------------------------------------------------|
E|-0--0-----0--0--0-----0--0--0-----0--0--0-----0--0--0-----0--0--0-----0--0--0-----0--0--0-----0|

e|-0-----2-----------------------------------------------------2-----0---------------------------|
B|-------------4-----5-----2-----4-----0-----------------0---------------------------------------|
G|-------------------------------------------2-----1-----------------------2-----2-----2-----2---| 
D|-----------------------------------------------------------------------------------------------|
A|-----------------------------------------------------------------------------------------------|
E|-0--0-----0--0--0-----0--0--0-----0--0--0-----0--0--0-----0--0--0-----0--0--0-----0--0--0-----0|


                                  >--Slow Down-->
e|-0-----2-----------------------------------------------------2---------------0-----|
B|-------------4-----5-----2-----4-----0-----------------0-----------0---------0-----|
G|-------------------------------------------2-----1---------------------------1-----| 
D|-----------------------------------------------------------------------------2-----|
A|-----------------------------------------------------------------------------2-----|
E|-0--0-----0--0--0-----0--0--0-----0--0--0-----0--0--0-----0--0--0------0-----0-----|



************************************

| /  Slide up

************************************

            
            
Suggest correction
Creating personal tab
Creating personal tab
You can edit any tab online and save it as your Personal.

You can edit, replace or remove any tab part or add personal notes – all changes will be seen only by you.

Personal tabs can be accessed anytime from any device, even offline.
Learn more »
comments
print report bad tab
10 comments total. Showing first comments.
+3 reply
*~*kRiS*~* 10 Apr 19, 2009 04:54 PM

I love how you added in the bass.
It makes it sound so much more full.
Thanks so much for this awesome tab!

0 reply
ilovetsc 10 Apr 20, 2009 08:22 PM

is the bass line all the zeros on the E string?

0 reply
Blosr 108 Apr 21, 2009 06:44 AM

yeah, the bass notes are all correct, but you can mess around with the rhythm if you want.

guest
You may want to rate the tab now too:
select rating
Wanna post a correction for this tab? Suggest correction