Oops, an error
Loading. Please wait.

No Love tab

694 views 9 this week
no commentswrite comment
1 2 3 4 5
x 3
add to favorites
×
Save as Personal and add changes to this tab that will be seen only by you. Learn more ›
×
You can save this tab as Personal to edit and correct it or add notes. All changes will be seen only by you. Learn more »
launch autoscroll
font size
0
reset
how to read this tab
guitar tuner
edit
Autoscroll
slow
fast
+/-
esc
set tempo
stop
[Verse]

Guitars I, II

D#|-------------------------------------|-------------------------------------|
A#|----------0-----------------0--------|----------0-----------------0--------|
F#|------5-----5-----------5-----5---5--|------5-----5-----------5-----5---5--|
c#|----7---7-----7-------7---7-----7----|----7---7-----7-------7---7-----7----|
G#|--0---------------0------------------|-------------------------------------|
C#|-------------------------------------|--5---------------5------------------|

D#|-------------------------------------|-------------------------------------|
A#|----------0-----------------0--------|----------0-----------------1--------|
F#|------2-----2-----------2-----2---2--|------2-----2-----------0------0-----|
c#|----3---3-----3-------3---3-----3----|----3---3-----3-------3---3------/7--| 
G#|-------------------------------------|-------------------------------------|
C#|--0---------------0------------------|--3---------------3------------------|

D#|-------------------------------------|-------------------------------------|
A#|----------0-----------------0--------|----------0-----------------0--------|
F#|------5-----5-----------5-----5---5--|------5-----5-----------5-----5---5--|
c#|----7---7-----7-------7---7-----7----|----7---7-----7-------7---7-----7----|
G#|--0---------------0------------------|-------------------------------------|
C#|-------------------------------------|--5---------------5------------------|

D#|-------------------------------------|-------------------------------------|
A#|----------0-----------------0--------|----------0-----------------1--------|
F#|------2-----2-----------2-----2---2--|------2-----2-----------0------0-----|
c#|----3---3-----3-------3---3-----3----|----3---3-----3-------3---3------/7--| 
G#|-------------------------------------|-------------------------------------|
C#|--0---------------0------------------|--3---------------3------------------|

D#|-------------------------------------|-------------------------------------|
A#|----------0-----------------0--------|----------0-----------------0--------|
F#|------5-----5-----------5-----5---5--|------5-----5-----------5-----5---5--|
c#|----7---7-----7-------7---7-----7----|----7---7-----7-------7---7-----7----|
G#|--0---------------0------------------|-------------------------------------|
C#|-------------------------------------|--5---------------5------------------|

D#|-------------------------------------|-------------------------------------|
A#|----------0-----------------0--------|----------0-----------------1--------|
F#|------2-----2-----------2-----2---2--|------2-----2-----------0------0-----|
c#|----3---3-----3-------3---3-----3----|----3---3-----3-------3---3------/7--| 
G#|-------------------------------------|-------------------------------------|
C#|--0---------------0------------------|--3---------------3------------------|

D#|-------------------------------------|-------------------------------------|
A#|----------0-----------------0--------|----------0-----------------0--------|
F#|------5-----5-----------5-----5---5--|------5-----5-----------5-----5---5--|
c#|----7---7-----7-------7---7-----7----|----7---7-----7-------7---7-----7----|
G#|--0---------------0------------------|-------------------------------------|
C#|-------------------------------------|--5---------------5------------------|

D#|-------------------------------------|-------------------------------------|
A#|----------0-----------------0--------|----------0-----------------1--------|
F#|------2-----2-----------2-----2---2--|------2-----2-----------0------0-----|
c#|----3---3-----3-------3---3-----3----|----3---3-----3-------3---3------/7--| 
G#|-------------------------------------|-------------------------------------|
C#|--0---------------0------------------|--3---------------3------------------|


[Bridge]

Guitar I

D#|--0----------------------------------|--0-----------------------------------|
A#|--0----------------------------------|--0-----------------------------------|
F#|--5----------------------------------|--4----------------------------4---5--|
c#|--7----------------------------------|--5-----------------------------------|
G#|--0----------------------------------|--0----------------------------2---3--|
C#|--7----------------------------------|--5-----------------------------------|

D#|-------------------------------------|--------------------------------------|
A#|-------------------------------------|--------------------------------------|
F#|--/9--------------7------------------|--5-----------------------------------|
c#|-------------------------------------|--------------------------------------|
G#|--/7--------------5------------------|--3-----------------------------------|
C#|-------------------------------------|--------------------------------------|

D#|--0----------------------------------|--0-----------------------------------|
A#|--0----------------------------------|--0-----------------------------------|
F#|--5----------------------------------|--4----------------------------4---5--|
c#|--7----------------------------------|--5-----------------------------------|
G#|--0----------------------------------|--0----------------------------2---3--|
C#|--7----------------------------------|--5-----------------------------------|

D#|-------------------------------------|--------------------------------------|
A#|-------------------------------------|--------------------------------------|
F#|--/9--------------10-----------------|--5-----------------------------------|
c#|-------------------------------------|--------------------------------------|
G#|--/7--------------8------------------|--3-----------------------------------|
C#|-------------------------------------|--------------------------------------|


Guitar II

D#|--0----------------------------------|--0-----------------------------------|
A#|--0----------------------------------|--0-----------------------------------|
F#|--5----------------------------------|--4----------------------------4---5--|
c#|--7----------------------------------|--5-----------------------------------|
G#|--0----------------------------------|--0----------------------------2---3--|
C#|--7----------------------------------|--5-----------------------------------|

D#|-------------------------------------|--------------------------------------|
A#|-------------------------------------|--------------------------------------|
F#|--/9--------------7------------------|----------0---------------------------|
c#|-------------------------------------|------7-------------------------------|
G#|--/7--------------5------------------|--8-----------------------------------|
C#|-------------------------------------|--------------------------------------|

D#|--0----------------------------------|--0-----------------------------------|
A#|--0----------------------------------|--0-----------------------------------|
F#|--5----------------------------------|--4----------------------------4---5--|
c#|--7----------------------------------|--5-----------------------------------|
G#|--0----------------------------------|--0----------------------------2---3--|
C#|--7----------------------------------|--5-----------------------------------|

D#|-------------------------------------|--------------------------------------|
A#|-------------------------------------|--------------------------------------|
F#|-------------------------------------|--------------------------------------|
c#|--/9------------10-------------------|----------0---------------------------|
G#|-------------------------------------|------7-------------------------------|
C#|--/7------------8--------------------|--8-----------------------------------|
C#|-------------------------------------|--------------------------------------|


[Pre-Chorus]

Guitar I

D#|---------------------------------------------------|-----------------------------------|
A#|---------------------------------------------------|-----------------------------------|
F#|---------------------------------------------------|-----------------------------------|
c#|--10-10-10-10-10-10-10-10-10-10-10-10-10-10-10-10--|--9-9-9-9-9-9-9-9-9-9-9-9-9-9-9-9--|
G#|--7--7--7--7--7--7--7--7--7--7--7--7--7--7--7--7---|--5-5-5-5-5-5-5-5-5-5-5-5-5-5-5-5--|
C#|--7--7--7--7--7--7--7--7--7--7--7--7--7--7--7--7---|--5-5-5-5-5-5-5-5-5-5-5-5-5-5-5-5--|

D#|-----------------------------------|-----------------------------------|
A#|-----------------------------------|-----------------------------------|
F#|-----------------------------------|-----------------------------------|
c#|--5-5-5-5-5-5-5-5-5-5-5-5-5-5-5-5--|--5-5-5-5-5-5-5-5-5-5-5-5-5-5-5-5--| 
G#|--3-3-3-3-3-3-3-3-3-3-3-3-3-3-3-3--|--3-3-3-3-3-3-3-3-0-0-0-0-0-0-0-0--|
C#|--3-3-3-3-3-3-3-3-3-3-3-3-3-3-3-3--|--3-3-3-3-3-3-3-3-0-0-0-0-0-0-0-0--|

D#|---------------------------------------------------|-----------------------------------|
A#|---------------------------------------------------|-----------------------------------|
F#|---------------------------------------------------|-----------------------------------|
c#|--10-10-10-10-10-10-10-10-10-10-10-10-10-10-10-10--|--9-9-9-9-9-9-9-9-9-9-9-9-9-9-9-9--|
G#|--7--7--7--7--7--7--7--7--7--7--7--7--7--7--7--7---|--5-5-5-5-5-5-5-5-5-5-5-5-5-5-5-5--|
C#|--7--7--7--7--7--7--7--7--7--7--7--7--7--7--7--7---|--5-5-5-5-5-5-5-5-5-5-5-5-5-5-5-5--|

D#|-----------------------------------|-----------------------------------|
A#|-----------------------------------|-----------------------------------|
F#|-----------------------------------|-----------------------------------|
c#|--5-5-5-5-5-5-5-5-5-5-5-5-5-5-5-5--|--5-5-5-5-5-5-5-5-5-5-5-5-5-5-5-5--| 
G#|--3-3-3-3-3-3-3-3-3-3-3-3-3-3-3-3--|--3-3-3-3-3-3-3-3-0-0-0-0-0-0-0-0--|
C#|--3-3-3-3-3-3-3-3-3-3-3-3-3-3-3-3--|--3-3-3-3-3-3-3-3-0-0-0-0-0-0-0-0--|


Guitar II

D#|--0-0-0-0-0-0-0-0-0-0-0-0-0-0-0-0--|--0-0-0-0-0-0-0-0-0-0-0-0-0-0-0-0--|
A#|--1-1-1-1-1-1-1-1-0-0-0-0-0-0-0-0--|--1-1-1-1-1-1-1-1-0-0-0-0-0-0-0-0--|
F#|--2-2-2-2-2-2-2-2-2-2-2-2-2-2-2-2--|--2-2-2-2-2-2-2-2-2-2-2-2-2-2-2-2--|
c#|-----------------------------------|-----------------------------------|
G#|-----------------------------------|-----------------------------------|
C#|-----------------------------------|-----------------------------------|

D#|--0-0-0-0-0-0-0-0-0-0-0-0-0-0-0-0--|--0-0-0-0-0-0-0-0-0-0-0-0-0-0-0-0--|
A#|--1-1-1-1-1-1-1-1-3-3-3-3-3-3-3-3--|--1-1-1-1-1-1-1-1-0-0-0-0-0-0-0-0--|
F#|--2-2-2-2-2-2-2-2-2-2-2-2-2-2-2-2--|--2-2-2-2-2-2-2-2-2-2-2-2-2-2-2-2--|
c#|-----------------------------------|-----------------------------------|
G#|-----------------------------------|-----------------------------------|
C#|-----------------------------------|-----------------------------------|

D#|--0-0-0-0-0-0-0-0-0-0-0-0-0-0-0-0--|--0-0-0-0-0-0-0-0-0-0-0-0-0-0-0-0--|
A#|--1-1-1-1-1-1-1-1-0-0-0-0-0-0-0-0--|--5-5-5-5-5-5-5-5-5-5-5-5-5-5-5-5--|
F#|--2-2-2-2-2-2-2-2-2-2-2-2-2-2-2-2--|--5-5-5-5-5-5-5-5-5-5-5-5-5-5-5-5--|
c#|-----------------------------------|-----------------------------------|
G#|-----------------------------------|-----------------------------------|
C#|-----------------------------------|-----------------------------------|

D#|--0-0-0-0-0-0-0-0-0-0-0-0-0-0-0-0--|--0-0-0-0-0-0-0-0-----------------------------|
A#|--8-8-8-8-8-8-8-8-8-8-8-8-8-8-8-8--|--8-8-8-8-8-8-8-8-13----13-13-13-13-13-13-13--|
F#|--9-9-9-9-9-9-9-9-9-9-9-9-9-9-9-9--|--9-9-9-9-9-9-9-9-16b17-17-17-17-17-17-17-17--|
c#|-----------------------------------|----------------------------------------------|
G#|-----------------------------------|----------------------------------------------|
C#|-----------------------------------|----------------------------------------------|


[Chorus]

Guitar I

D#|-----------------------------------|-----------------------------------|
A#|-----------------------------------|-----------------------------------|
F#|-----------------------------------|-----------------------------------|
c#|--3-3-3-3-3-3-3-3-3-3-3-3-3-3-3-3--|--0-0-0-0-0-0-0-0-0-0-0-0-0-0-0-0--|
G#|--3-3-3-3-3-3-3-3-3-3-3-3-3-3-3-3--|--0-0-0-0-0-0-0-0-0-0-0-0-0-0-0-0--|
C#|--3-3-3-3-3-3-3-3-3-3-3-3-3-3-3-3--|--0-0-0-0-0-0-0-0-0-0-0-0-0-0-0-0--|

D#|-----------------------------------|-----------------------------------|
A#|-----------------------------------|-----------------------------------|
F#|-----------------------------------|-----------------------------------|
c#|--7---------------5----------------|--3-3-3-3-3-3-3-3-3-3-3-3-3-3-3-3--|
G#|--7---------------5----------------|--3-3-3-3-3-3-3-3-3-3-3-3-3-3-3-3--|
C#|--7---------------5----------------|--3-3-3-3-3-3-3-3-3-3-3-3-3-3-3-3--|

 PM       * * * * * * * * * * * * * *  
D#|------------------------------------|----------------------------------|
A#|------------------------------------|----------------------------------|
F#|------------------------------------|--2-------------------------------|
c#|--3/5--5-5-5-5-5-5-5-5-5-5-5-5-5-5--|--2-------------------------------|
G#|--3/5--5-5-5-5-5-5-5-5-5-5-5-5-5-5--|--0-------------------------------|
C#|--3/5--5-5-5-5-5-5-5-5-5-5-5-5-5-5--|----------------------------------|
 

Guitar II
     
D#|-----------------------------------|---------------------------0-------|
A#|-------------------------8---------|----------------------6------------|
F#|----------5------------------------|----------5------------------------|
c#|--/7-------------7-----------------|--/7-------------7-----------------|
G#|-----------------------------------|-----------------------------------|
C#|-----------------------------------|-----------------------------------|

D#|-----------------------------------|-----------------------------------|
A#|-------------------0---------------|-------------------------8---------|
F#|---------5---------------5---------|----------5------------------------|
c#|--/7-----------7----------------7--|--/7-------------7-----------------|
G#|-----------------------------------|-----------------------------------|
C#|-----------------------------------|-----------------------------------|

D#|---------------------0----0--0--0--|--0--------------------------------|
A#|-------------------6----6--6--6----|--6~-------------------------------|
F#|----------5------------------------|-----------------------------------|
c#|--/7------------7------------------|-----------------------------------|
G#|-----------------------------------|-----------------------------------|
C#|-----------------------------------|-----------------------------------|


[Breakdown]

Guitar I

 PM---------------------------------------------------------------------| 
D#|-----------------------------------|-----------------------------------|
A#|-----------------------------------|-----------------------------------|
F#|--2-2-2-2-2-2-2-2-2-2-2-2-2-2-2-2--|--2-2-2-2-2-2-2-2-2-2-2-2-2-2-2-2--|
c#|--2-2-2-2-2-2-2-2-2-2-2-2-2-2-2-2--|--2-2-2-2-2-2-2-2-2-2-2-2-2-2-2-2--| x2
G#|--0-0-0-0-0-0-0-0-0-0-0-0-0-0-0-0--|--0-0-0-0-0-0-0-0-0-0-0-0-0-0-0-0--|
C#|-----------------------------------|-----------------------------------|

  PM--------------------------------------------------------------------|
D#|-----------------------------------|-----------------------------------|
A#|-----------------------------------|-----------------------------------|
F#|--2-2-2-2-2-2-2-2-2-2-2-2-2-2-2-2--|--2-2-2-2-2-2-2-2-2-2-2-2-2-2-2-2--|
c#|--2-2-2-2-2-2-2-2-2-2-2-2-2-2-2-2--|--2-2-2-2-2-2-2-2-2-2-2-2-2-2-2-2--| x3
G#|--0-0-0-0-0-0-0-0-0-0-0-0-0-0-0-0--|--0-0-0-0-0-0-0-0-0-0-0-0-0-0-0-0--|
C#|-----------------------------------------------------------------------|

  PM--------------------------------------------------------------------|
D#|-----------------------------------|-----------------------------------|
A#|-----------------------------------|-----------------------------------|
F#|--2-2-2-2-2-2-2-2-2-2-2-2-2-2-2-2--|--2-2-2-2-2-2-2-2-2-2-2-2-2-2-2-2--|
c#|--2-2-2-2-2-2-2-2-2-2-2-2-2-2-2-2--|--2-2-2-2-2-2-2-2-2-2-2-2-2-2-2-2--|
G#|--0-0-0-0-0-0-0-0-0-0-0-0-0-0-0-0--|--0-0-0-0-0-0-0-0-0-0-0-0-0-0-0-0--|
C#|-----------------------------------------------------------------------|

  PM--------------------------------------------------------------------|        
D#|-----------------------------------|-----------------------------------|
A#|-----------------------------------|-----------------------------------|
F#|-----------------------------------|-----------------------------------|
c#|--3-3-3-3-3-3-3-3-3-3-3-3-3-3-3-3--|--3-3-3-3-3-3-3-3-3-3-3-3-3-3-3-3--| 
G#|--3-3-3-3-3-3-3-3-3-3-3-3-3-3-3-3--|--3-3-3-3-3-3-3-3-3-3-3-3-3-3-3-3--| 
C#|--3-3-3-3-3-3-3-3-3-3-3-3-3-3-3-3--|--3-3-3-3-3-3-3-3-3-3-3-3-3-3-3-3--|

  PM--------------------------------------------------------------------|
D#|-----------------------------------|-----------------------------------|
A#|-----------------------------------|-----------------------------------|
F#|--2-2-2-2-2-2-2-2-2-2-2-2-2-2-2-2--|--2-2-2-2-2-2-2-2-2-2-2-2-2-2-2-2--|
c#|--2-2-2-2-2-2-2-2-2-2-2-2-2-2-2-2--|--2-2-2-2-2-2-2-2-2-2-2-2-2-2-2-2--|
G#|--0-0-0-0-0-0-0-0-0-0-0-0-0-0-0-0--|--0-0-0-0-0-0-0-0-0-0-0-0-0-0-0-0--|
C#|-----------------------------------------------------------------------|

  PM--------------------------------------------------------------------|        
D#|-----------------------------------|-----------------------------------|
A#|-----------------------------------|-----------------------------------|
F#|-----------------------------------|-----------------------------------|
c#|--3-3-3-3-3-3-3-3-3-3-3-3-3-3-3-3--|--3-3-3-3-3-3-3-3-3-3-3-3-3-3-3-3--| 
G#|--3-3-3-3-3-3-3-3-3-3-3-3-3-3-3-3--|--3-3-3-3-3-3-3-3-3-3-3-3-3-3-3-3--| 
C#|--3-3-3-3-3-3-3-3-3-3-3-3-3-3-3-3--|--3-3-3-3-3-3-3-3-3-3-3-3-3-3-3-3--|

  PM--------------------------------------------------------------------|
D#|-----------------------------------|-----------------------------------|
A#|-----------------------------------|-----------------------------------|
F#|--2-2-2-2-2-2-2-2-2-2-2-2-2-2-2-2--|--2-2-2-2-2-2-2-2-2-2-2-2-2-2-2-2--|
c#|--2-2-2-2-2-2-2-2-2-2-2-2-2-2-2-2--|--2-2-2-2-2-2-2-2-2-2-2-2-2-2-2-2--|
G#|--0-0-0-0-0-0-0-0-0-0-0-0-0-0-0-0--|--0-0-0-0-0-0-0-0-0-0-0-0-0-0-0-0--|
C#|-----------------------------------------------------------------------|

  PM--------------------------------------------------------------------|        
D#|-----------------------------------|-----------------------------------|
A#|-----------------------------------|-----------------------------------|
F#|-----------------------------------|-----------------------------------|
c#|--3-3-3-3-3-3-3-3-3-3-3-3-3-3-3-3--|--3-3-3-3-3-3-3-3-3-3-3-3-3-3-3-3--| 
G#|--3-3-3-3-3-3-3-3-3-3-3-3-3-3-3-3--|--3-3-3-3-3-3-3-3-3-3-3-3-3-3-3-3--| 
C#|--3-3-3-3-3-3-3-3-3-3-3-3-3-3-3-3--|--3-3-3-3-3-3-3-3-3-3-3-3-3-3-3-3--|


Guitar II

D#|-----------------------------------|------------------0-0-0-0-0-0-0----|
A#|-----------------------------------|------------------1-1-1-1-1-1-1----|
F#|-----------------------------------|------------------2-2-2-2-2-2-2----|
c#|-----------------------------------|------------------2-2-2-2-2-2-2----| x3
G#|-----------------------------------|------------------0-0-0-0-0-0-0----|
C#|-----------------------------------|-----------------------------------|

D#|-----------------------------------|--0---------------0-0-0-0-0-0-0-0--|
A#|--1---------------0----------------|--1---------------1-1-1-1-1-1-1-1--|
F#|--------2---------------2----------|--2---------------2-2-2-2-2-2-2-2--|
c#|--------------2---------------2----|--2---------------2-2-2-2-2-2-2-2--|
G#|-----------------------------------|--0---------------0-0-0-0-0-0-0-0--|
C#|-----------------------------------|-----------------------------------|

  PM----------------------------------------------------|   
D#|--0---------------0----------------|--0---------------0-0-0-0-0-0-0-0--|
A#|--1---------------1----------------|--1---------------1-1-1-1-1-1-1-1--|
F#|--2-2-2-2-2-2-2-2-2-2-2-2-2-2-2-2--|--2-2-2-2-2-2-2-2-2-2-2-2-2-2-2-2--|
c#|--2-2-2-2-2-2-2-2-2-2-2-2-2-2-2-2--|--2-2-2-2-2-2-2-2-2-2-2-2-2-2-2-2--| x2
G#|--0-0-0-0-0-0-0-0-0-0-0-0-0-0-0-0--|--0-0-0-0-0-0-0-0-0-0-0-0-0-0-0-0--| 
C#|-----------------------------------|-----------------------------------|

  PM----------------------------------------------------|   
D#|--0---------------0----------------|--0---------------0-0-0-0-0-0-0-0--|
A#|--1---------------1----------------|--1---------------1-1-1-1-1-1-1-1--|
F#|--2---------------2----------------|--2---------------2-2-2-2-2-2-2-2--|
c#|--3-3-3-3-3-3-3-3-3-3-3-3-3-3-3-3--|--3-3-3-3-3-3-3-3-3-3-3-3-3-3-3-3--|
G#|----3-3-3-3-3-3-3---3-3-3-3-3-3-3--|----3-3-3-3-3-3-3------------------|
C#|----3-3-3-3-3-3-3---3-3-3-3-3-3-3--|----3-3-3-3-3-3-3------------------|

D#|-----------------------------------|-----------------------------------|
A#|-----------------0-----------------|-----------------0-----------------|
F#|---------5-----------5-------------|---------5-----------5-------------|
c#|-----7-------7-----------7---------|-----7-------7-----------7---------|
G#|--0--------------------------------|--0--------------------------------|
C#|-----------------------------------|-----------------------------------|

D#|-----------------------------------|-----------------------------------|
A#|-----------------0---1-------------|-----------------0---1-------------|
F#|---------2---------------2---------|---------2---------------2---------|
c#|-----3-------3---------------3-----|-----3-------3---------------3-----|
G#|-----------------------------------|-----------------------------------|
C#|--3--------------------------------|--3--------------------------------|

D#|-----------------------------------|-----------------------------------|
A#|-----------------0-----------------|-----------------0-----------------|
F#|---------5-----------5-------------|---------5-----------5-------------|
c#|-----7-------7----------7----------|-----7-------7-----------7---------|
G#|--0--------------------------------|--0--------------------------------|
C#|-----------------------------------|-----------------------------------|

D#|-----------------------------------|------------------0-0-0-0-0-0-0-0--|
A#|-----------------0---1-------------|------------------1-1-1-1-1-1-1-1--|
F#|---------2---------------2---------|---------2--------2-2-2-2-2-2-2-2--|
c#|-----3-------3---------------3-----|-----3-------3----3-3-3-3-3-3-3-3--|
G#|-----------------------------------|-----------------------------------|
C#|--3--------------------------------|--3--------------------------------|


[Outro]

Guitars I, II

D#|--0--|
A#|--0--|
F#|--5--|
c#|--7--| X2
G#|--0--|
C#|--7--|



************************************

| b   Bend
| /   Slide up
| ~   Vibrato
| PM  Palm mute

************************************

            
            
Suggest correction
Creating personal tab
Creating personal tab
You can edit any tab online and save it as your Personal.

You can edit, replace or remove any tab part or add personal notes – all changes will be seen only by you.

Personal tabs can be accessed anytime from any device, even offline.
Learn more »
Give kudos to tab author, rate the tab!
1 2 3 4 5
comments
print report bad tab
guest
You may want to rate the tab now too:
select rating
Wanna post a correction for this tab? Suggest correction