Oops, an error
Loading. Please wait.
We have an official Drivers High tab made by UG professional guitarists. Check out the tab »
×
12,972 views 6 this week
1 commentread comment
1 2 3 4 5
1 last vote to show rating
add to favorites
×
Save as Personal and add changes to this tab that will be seen only by you. Learn more ›
×
You can save this tab as Personal to edit and correct it or add notes. All changes will be seen only by you. Learn more »
launch autoscroll
font size
0
reset
guitar tuner
edit
Autoscroll
slow
fast
+/-
esc
set tempo
stop
Author
----------------------------------------------------------------------------
			     L'arc~en~Ciel - Driver's High
----------------------------------------------------------------------------

Tabbed By : Yhanou RainMakeR 
e-mail: cicax_2004@plasa.com
friendster: www.friendster.com/yhanourainmaker 

Tuning:GDAE

L'arc~en~Ciel - Driver's High
4/4
Intro
|-----------------|-----------------|-----------------|-----------------|
|-----------------|-----------------|-----------------|-----------------|
|-0---------------|-2---------------|-----------------|-4---4-4---4-6h7-|
|-----------------|-----------------|-4---------------|-----------------|

|-----------------|-----------------|-----------------|-----------------|
|-----------------|-----------------|-----------------|-----------------|
|-----------------|-2---------------|-------7---7---9-|-7---6-6-6-7-6-4-|
|-5---------/(9)--|-----------------|--0--0---0---0---|-----------------|


Main Riff
|-----------------|-----------------|-----------------|-----------------|
|-----------------|-----------------|-----------------|-----------------|
|-0--/7---6-7-6---|--/9-9-7---6-----|----/6---4-6-6-4-|---4---4---6h7-0-|
|---------------7-|-------------7-4-|--2--------------|-----4-----------|

|-----------------|-----------------|-----------------|-----------------|
|-----------------|-----------------|-----------------|-----------------|
|-0--/7---6-7-6---|--/7-7-6---6-----|-------------9-7-|---6-6-6-7-6-----|
|---------------7-|-------------7-0-|---0-7-0-9-0-----|-------------7-5-|


Verse
|-----------------|-----------------|-----------------|-----------------|
|-----------------|-----------------|-----------------|-----------------|
|-----------------|----9-7----6-----|-0-0-0-0-0-0-0-0-|-0-0-0-0---0---0-|
|-0-0-0-0-0-0-0-0-|-/7----------7-\-|-----------------|---------0---0---|

|-----------------|-----------------|-----------------|-----------------|
|-----------------|-----------------|-----------------|-----------------|
|-4-4-4-4-4-4-4-4-|-2-2-2-2-2-2-2-2-|-0-0-0-0-0-0-0-0-|----9-7----------|
|-----------------|-----------------|-----------------|-/7--------7-0-7-|

|-----------------|-----------------|-----------------|-----------------|
|-----------------|-----------------|-----------------|-----------------|
|-----------------|----9-7----6-----|-0-0-0-0-0-0-0-0-|-0-0-0-0---0---0-|
|-0-0-0-0-0-0-0-0-|-/7----------7-\-|-----------------|---------0---0---|

|-----------------|-----------------|-----------------|-4---2-1---------|
|-----------------|-----------------|-------------2/4-|---------4-2-1---|
|-4-4-4-4-4-4-4-4-|-2-2-2-2---2---2-|-0-0-0-0-0-0-----|---------------2-|
|-----------------|---------0---0---|-----------------|-----------------|

|-------------4-2-|---1-2-1---------|-----------------|-----------------|
|-----------2-----|---------4-2-1---|-----------1-1---|-----------------|
|-----------------|---------------2-|---------------4-|---2-4-2-0-------|
|-3---0-3---------|-----------------|-3-3-0-3---------|-----------4-2-0-|

|-----------------|-----------------|-----------------|---------------|
|---4-2---2-------|-2-----2-----2-4-|-----------------|---------------|  
|-------4---4-2-4-|---4-2-----4-----|-2--4--5--7---/9-|-7-7-6-7-6-----| 
|-2---------------|-----------------|-----------------|-----------7-5-|

back to Main Riff

Verse 2
|-----------------|-----------------|-----------------|-----------------|
|-----------------|-----------------|-----------------|-----------------|
|-----------------|----9-7----6-----|-0-0-0-0-0-0-0-0-|-0-0-0-0---0---0-|
|-0-0-0-0-0-0-0-0-|-/7----------7-\-|-----------------|---------0---0---|

|-----------------|-----------------|-----------------|-----------------|
|-----------------|-----------------|-----------------|-----------------|
|-4-4-4-4-4-4-4-4-|-2-2-2-2---2---2-|-0-0-0-0-0-0-0-0-|----9-7----------|
|-----------------|---------0---0---|-----------------|-/7--------7-0-7-|

|-----------------|-----------------|-----------------|-----------------|
|-----------------|-----------------|-----------------|-----------------|
|-----------------|----9-7----6-----|-0-0-0-0-0-0-0-0-|-0-0-0-0---0---0-|
|-0-0-0-0-0-0-0-0-|-/7----------7-\-|-----------------|---------0---0---|

|-----------------|-----------------|-----------------|-4---2-1---------|
|-----------------|-----------------|-------------2/4-|---------4-2-1---|
|-4-4-4-4-4-4-4-4-|-2-2-2-2---2---2-|-0-0-0-0-0-0-----|---------------2-|
|-----------------|---------0---0---|-----------------|-----------------|

|-------------4-2-|---1-2-1---------|-----------------|-----------------|
|-----------2-----|---------4-2-1---|-----------1-1---|-----------------|
|-----------------|---------------2-|---------------4-|---2-4-2-0-------|
|-3---0-3---------|-----------------|-3-3-0-3---------|-----------4-2-0-|

|-----------------|-----------------|-----------------|-----------------|
|-----------------|-----------------|-----------------|-----------------|
|-----------------|-------------2-2-|-0-----0---0-4-2-|-----2-\---------|
|-2---2-0---0-2-2-|-4---4-4---4-----|-----0-----------|-----------------|


Chorus 1
|-----------------|-----------------|-----------------|-----------------|
|-----------------|-----------------|------/7---7-----|-----9-7---6-----|
|------/7---7-----|-----9-7---6-----|-0--0--------7\--|--0----------7\--|
|-0--0--------7\--|--0----------7\--|-----------------|-----------------|

|-----------------|-----------------|-----------------|-----------------|
|-----------------|-----------------|------/7---7-----|-----------------|
|------/7---7-----|-----9-7---6-----|-0--0--------7\--|----6---7---7/9--|
|-0--0--------7\--|--0----------7\--|-----------------|--7---7---7------|

|-----------------|-----4-2---1-----|-----------------|-----9-8---------|
|-----------------|---2---------2---|-----------------|---6-------9-6---|
|---------------0-|-----------------|---------------4-|-----------------|
|-4---4---4-4-4---|-----------------|-4---4---4-4-4---|-----------------|

|-----------------|-----------------|-----------------|---------------|
|---4-2---2-------|-2-----2-----2-4-|-----------------|---------------|  
|-------4---4-2-4-|---4-2-----4-----|-2--4--5--7---/9-|-7-7-6-7-6-----| 
|-2---------------|-----------------|-----------------|-----------7-5-|

Guitar Solo (play Main Riff twice)

Bridge
|-----------------|-----------------|-----------------|-----------------|
|-----------------|-----------------|-----------------|-----------------|
|-0---------------|-2---------------|-----------------|-4-x-x-4-x-x-4\--|
|-----------------|-----------------|-4---------------|-----------------|
                                                  
|-----------------|-----------------|-------2--/--11--|-10-----6--\-----|
|-----------------|-----------------|-----------------|-----------------|
|-----------------|-----------------|-4---------------|-----------------|
|-2---------------|-4---------------|-----------------|-----------------|

|-----------------|-----------------|-----------------|-----------------|
|-----------------|-----------------|-----------------|-----------------|
|-0-----------0---|-2------2---/6\--|---------------2-|-4-4-4-4-4--/7\--|
|-----------------|-----------------|-4-----------4---|-----------------|

|-----------------|-----------------|-----------------|-----------------|
|-----------------|-----------------|-----------------|-----------------|
|-----------------|-----------------|-2-2-2---2-2---2-|---2-2-----------|
|-2-0-2-0-2-0-2-0-|-2-0-2-0-2-0-2-0-|-------2-----2---|-----------------|

Chorus 2
|-----------------|-----------------|-----------------|-----------------|
|-----------------|-----------------|------/7---7-----|--7h9-7----6-----|
|------/7---7-----|-----9-7---6-----|-0--0--------7\--|-------------7\--|
|-0--0--------7\--|--0----------7\--|-----------------|-----------------|

|-----------------|-----------------|-----------------|-----------------|
|-----------------|-----------------|------/7---7-----|-----------------|
|------/7---7-----|-----9-7---6-----|-0--0--------7\--|----6---7---7/9--|
|-0--0--------7\--|--0----------7\--|-----------------|--7---7---7------|

|-----------------|-----4-2---1-----|-----------------|-----9-8---------|
|-----------------|---2---------2---|-----------------|---6-------9-6h8-|
|---------------0-|-----------------|---------------4-|-----------------|
|-4---4---4-4-4---|-----------------|-4---4---4-4-4---|-----------------|

|-----------------|-----------------|-----------------|
|---4-2---2-------|-2-----2-----2-4-|-------------/9\-|
|-------4---4-2-4-|---4-2-----4-----|-2--4--5--7------|
|-2---------------|-----------------|-----------------|

|-----------------|-----------------|-----------------|-----------------|
|-----------------|-----------------|------/7---7-----|-----9-7---6-----|
|------/7---7-----|-----9-7---6-----|-0--0--------7\--|--0----------7\--|
|-0--0--------7\--|--0----------7\--|-----------------|-----------------|

|-----------------|-----------------|-----------------|-----------------|
|-----------------|-----------------|------/7---7-----|-----------------|
|------/7---7-----|-----9-7---6-----|-0--0--------7\--|----6---7---7/9--|
|-0--0--------7\--|--0----------7\--|-----------------|--7---7---7------|

|-----------------|-----4-2---1-----|-----------------|-----9-8---------|
|-----------------|---2---------2---|-----------------|---6-------9-6---|
|---------------0-|-----------------|---------------4-|-----------------|
|-4---4---4-4-4---|-----------------|-4---4---4-4-4---|-----------------|

|-----------------|-----------------|-----------------|---------------|
|---4-2---2-------|-2-----2-----2-4-|-----------------|---------------|  
|-------4---4-2-4-|---4-2-----4-----|-2--4--5--7---/9-|-7-7-6-7-6-----| 
|-2---------------|-----------------|-----------------|-----------7-5-|


Outro
|-----------------|-----------------|-----------------|-----------------|
|-----------------|-----------------|-----------------|-----------------|
|-0--/7---6-7-6---|--/9-9-7---6-----|----/6---4-6-6-4-|---4-----4-6h7-0-|
|---------------7-|-------------7-4-|--2--------------|-----4-----------|

|-----------------|-----------------|-----------------|-----------------|
|-----------------|-----------------|-----------------|-----------------|
|--4-/7---6-7-6---|--/7-7-6---6-----|-------------9-7-|---6-6-6-7-6-----|
|---------------7-|-------------7-0-|---0-7-0-9-0-----|-------------7-5-|

|-----------------|-----------------|-----------------|-----------------|
|-----------------|-----------------|-----------------|-----------------|
|-0--/7---6-7-6---|--/9-9-7---6-----|----/6---4-6-6-4-|---4---4---6h7-0-|
|---------------7-|-------------7-4-|--2--------------|-----4-----------|

|-----------------|-----------------|-----------------|-----------------|
|-----------------|-----------------|--/9-7-6---------|-----------------|
|--4-/7---6-7-6---|--/7-7-6---6-----|---------9-7-6---|-----------------|
|---------------7-|-------------7-0-|---------------7-|-0~--------------|~Fin~

LEGEND:
/-slide up
\-slide down
h-hammer on
x-mute




            
            
Suggest correction
Creating personal tab
Creating personal tab
You can edit any tab online and save it as your Personal.

You can edit, replace or remove any tab part or add personal notes – all changes will be seen only by you.

Personal tabs can be accessed anytime from any device, even offline.
Learn more »
Give kudos to tab author, rate the tab!
1 2 3 4 5
comments
print report bad tab
1 comment total.
0 reply
TheHoxtonHeroes 57 Apr 27, 2009 05:02 PM

This is an amazing tab for an amazing song... Ive looked forever for this

guest
You may want to rate the tab now too:
select rating
Wanna post a correction for this tab? Suggest correction