Oops, an error
Loading. Please wait.

Cosa De Dos tab

22 views 1 this week
no commentswrite comment
1 2 3 4 5
3 more votes to show rating
add to favorites
×
Save as Personal and add changes to this tab that will be seen only by you. Learn more ›
×
You can save this tab as Personal to edit and correct it or add notes. All changes will be seen only by you. Learn more »
launch autoscroll
font size
0
reset
how to read this tab
guitar tuner
edit
Autoscroll
slow
fast
+/-
esc
set tempo
stop
[cejilla (capo) en el 1er traste]

D: 000232   555775            
G: 320003   355433
A: 002222   577655
Bm:224432

[cada acorde se toca como el arpegio del siguiente modo:
 por ejemplo, en la intro, sobre D:555775, G:355433, A:577655]
       D                    G            A            D
E-||-----5------5-----   ----3------3------5------5------5------5----- 
B-||------7------7----   -----3------3------5------5------7------7----
G-||----7--7---7--7---   ---4--4---4--4---6--6---6--6---7--7---7--7---
D-||---7------7-------   --5------5------7------7------7------7-------
A-||------------------   ---------------------------------------------
E-||------------------...---------------------------------------------...

              D
Y es cosa de dos

Pasar una noche desenfrenada,
          G   A
Loca de amor
            D
Es cosa de dos

         D
Cosa de dos

Que tu mano coja la mía,
                G     A
Me digas 'te quiero'
            D
Es cosa de dos


G                       A
   Y en el cine, en el barrio,
                      D    A     Bm   A  
   En el río, en la muerte, abrazarnos
G                    A
   Que me miras, te miro, me dices,
       D  A    Bm      A  
   Te digo 'te amo', si
G                     A
   De tu barrio, las calles
                     D A Bm A
   Que el cielo nos mire
G                A
   Lo tuyo y lo mío
            D   A              G   A
Es cosa de dos,    es cosa de dos


            D
Ayer encontré

Una llave que abría una puerta
          G A             
Dije que no
            D
El interruptor

                D
Ya dieron las diez

Y vimos como la noche 
            G      A
Cubría las calles
                D
Y a mi me aprender


G                       A
   Y en el cine, en el barrio,
                      D    A     Bm   A  
   En el río, en la muerte, abrazarnos
G                    A
   Que me miras, te miro, me dices,
       D  A    Bm      A  
   Te digo 'te amo', si
G                     A
   De tu barrio, las calles
                     D A Bm A
   Que el cielo nos mire
G                A
   Lo tuyo y lo mío
                        E-||---3-3\2---3\2---3\2--- 
                        B-||-----------------------
                        G-||---4-4\2---4\2---4\2---
                        D-||-----------------------
                        A-||-----------------------
                        E-||-----------------------

            D   A   G     A       D   A  G
Es cosa de dos,       es cosa de dos     uo-o
     D      A                G                A                 D
E-||-----15--15------------15-----16--------15--15------------15----------
B-||---18--18--18-16-----18--18-16--------18--18--18-16-----18--18-16-16--
G-||----------------15---------------------------------17-----------------
D-||----------------------------------------------------------------------
A-||----------------------------------------------------------------------
E-||----------------------------------------------------------------------...

    A       D   A   G     A       D   A  G
Es cosa de dos,       es cosa de dos     uo-o
    A       D   A                G  
Es cosa de dos      Si vamos al cine
    A       D   A                G  
Es cosa de dos      Si vamos al parque
    A       D   A               G  
Es cosa de dos      Si nos abrazamos
    A       D   A                G  
Es cosa de dos      Amame ...???
    A       D   A                G  

    A       D   A                G  


    A       D   A                G  
Es cosa de dos

    A       D          A           G  
              Y en el cine, en el barrio,
        A         D   A   G  
En la muerte abrazarnos
    A       D        A         G  
Es cosa de dos   lo tuyo y lo mío
    A       D   A   G     A       D   A  G
Es cosa de dos,       es cosa de dos     uo-o
    A       D   A   G     A       D   A  G
Es cosa de dos,       es cosa de dos     


###--------------------------------###
### Tablatura de:  Enrique Moraño  ###
###  Sevilla [España]  para ATAME  ###
### emorano@   FEB-2003 ###
###--------------------------------###

            
            
Suggest correction
Creating personal tab
Creating personal tab
You can edit any tab online and save it as your Personal.

You can edit, replace or remove any tab part or add personal notes – all changes will be seen only by you.

Personal tabs can be accessed anytime from any device, even offline.
Learn more »
Give kudos to tab author, rate the tab!
1 2 3 4 5
comments
print report bad tab
guest
Wanna post a correction for this tab? Suggest correction