Oops, an error
Loading. Please wait.

Hombre Mosca tab

46 views 1 this week
no commentswrite comment
1 2 3 4 5
3 more votes to show rating
add to favorites
×
Save as Personal and add changes to this tab that will be seen only by you. Learn more ›
×
You can save this tab as Personal to edit and correct it or add notes. All changes will be seen only by you. Learn more »
launch autoscroll
font size
0
reset
how to read this tab
guitar tuner
edit
Autoscroll
slow
fast
+/-
esc
set tempo
stop
Intro: (|G|C/G|D/A|G|)x1


  G                           C/G
e|---------------------------|---------------------------|
B|---3-3---3-3---3-3---3---3-|---1-1---1-1---1-1---1---1-|
G|---0-0---0-0---0-0---0---0-|---0-0---0-0---0-0---0---0-|
D|-----------------------0---|---------------------------|
A|-------2-----------2-------|-3-----------3---------3---|
E|-3-----------3-------------|-------3-----------3-------|

  D/A                         G
e|---2-2---2-2---2-2---2---2-|---------------------------|
B|---3-3---3-3---3-3---3---3-|---3-3---3-3---------------|
G|---------------------------|---0-0---0-0---------------|
D|-0-----------0---------0---|---------------------------|
A|-------0-----------0-------|-------2-------------------|
E|---------------------------|-3-----------3*------------|

*nota: pausa hasta terminar el tiempo y arranca con el 1er verso


1er Verso: (|G|C/G|D/A|G|)x3

Se toca igual que la intro con algunas pequeñas diferencias:

  G                         C/G
e|-------------------------|-------------------------|
B|---3-3---3-3---3-3---3-3-|---1-1---1-1---1-1---1-1-|
G|---0-0---0-0---0-0---0-0-|---0-0---0-0---0-0---0-0-|
D|-------------------------|-------------------------|
A|-------2-----------2-----|-3-----------3-----------|
E|-3-----------3-----------|-------3-----------3-----|

  D/A                       G
e|---2-2---2-----2*--------|-------------------------|
B|---3-3---3-----3---------|---3-3---3-3---3-3---3-3-|
G|---------------2---------|---0-0---0-0---0-0---0-0-|
D|-0-------------0---------|-------------------------|
A|-------0-----------------|-------2-----------2-----|
E|-------------------------|-3-----------3-----------|x2

*nota: corte fuerte y seco, pausa hasta terminar el tiempo
       y sigue.


  G                         C/G
e|-------------------------|-------------------------|
B|---3-3---3-3---3-3---3-3-|---1-1---1-1---1-1---1-1-|
G|---0-0---0-0---0-0---0-0-|---0-0---0-0---0-0---0-0-|
D|-------------------------|-------------------------|
A|-------2-----------2-----|-3-----------3-----------|
E|-3-----------3-----------|-------3-----------3-----|

  D/A                       G
e|---2-2---2-2---2-2---2-2-|-----------------------3-|
B|---3-3---3-3---3-3---3-3-|---3-3---3-3---3-3---3-3-|
G|-------------------------|---0-0---0-0---0-0---0-0-|
D|-0-----------0-----------|-----------------------0-|
A|-------0-----------0-----|-------2-----------2---2-|
E|-------------------------|-3-----------3---------3-|

Arranca con rasguido.

|C|D|Em|Em|
|C|D|Em|Em|
|C|D|Em|Em|
|C|C|D |D |

|C|D*|Em|Em|
|C|D |Em|Em|
|C|D |Em|Em|
|C|C*|D |D*| *nota: un rasguido y pausa hasta terminar el tiempo,
                   después sigue.


  G                         C/G
e|-------------------------|-------------------------|
B|---3-3---3-3---3-3---3-3-|---1-1---1-1---1-1---1-1-|
G|---0-0---0-0---0-0---0-0-|---0-0---0-0---0-0---0-0-|
D|-------------------------|-------------------------|
A|-------2-----------2-----|-3-----------3-----------|
E|-3-----------3-----------|-------3-----------3-----|

  D/A
e|---2-2---2-2*--------------|
B|---3-3---3-3---------------|
G|---------------------------|
D|-0-------------------------|
A|-------0-------------------|
E|---------------------------| |G| con rasguido.

*nota: pausa hasta terminar el tiempo y después sigue.


Sigue con rasguido.

|C|D|Em|Em|
|C|D|Em|Em|
|C|D|Em|Em|
|C|C|D |D |

|C|D*|Em|Em |
|C|D |Em|Em |
|C|D |Em|Em*|
|C|C |D |D  |

|C|D |Em|Em|
|C|D |Em|Em|
|C|D |Em|Em|
|C|C*|D |D*|

|F   |C |F |C |
|F   |C |G |G |
|Am-F|G |Am|Am|
|F   |G |Am|Am|
|F   |G*|Am|Am|
|F   |F |G |G |   *nota: un rasguido y pausa hasta terminar el
                      tiempo, después sigue.


|F   |G  |Am  |Am |
|F   |G  |Am  |Am |
|F   |G  |Am  |Am |
|F   |F  |G   |G  |
|Am-G|F-G|Am-G|F-G|
|Am-G|F-G|Am-G|F-G| y termina en Am.


para vicky que es re mosca..

            
            
Suggest correction
Creating personal tab
Creating personal tab
You can edit any tab online and save it as your Personal.

You can edit, replace or remove any tab part or add personal notes – all changes will be seen only by you.

Personal tabs can be accessed anytime from any device, even offline.
Learn more »
Give kudos to tab author, rate the tab!
1 2 3 4 5
comments
print report bad tab
guest
Wanna post a correction for this tab? Suggest correction