Oops, an error
Loading. Please wait.

Abejas tab

58 views 1 this week
no commentswrite comment
1 2 3 4 5
3 more votes to show rating
add to favorites
×
Save as Personal and add changes to this tab that will be seen only by you. Learn more ›
×
You can save this tab as Personal to edit and correct it or add notes. All changes will be seen only by you. Learn more »
launch autoscroll
font size
0
reset
how to read this tab
guitar tuner
edit
Autoscroll
slow
fast
+/-
esc
set tempo
stop
G#m C#m  x 2

Que casi siempre no fue nadie,
que se yo,pero mirame hoy             A
que quiero un dia transportarte,
A mi ser  Veras, que no es asi

Abraaa-zamé Que te lo pido            EST.
Abraaa-zamé Que tengo frio

G#m C#m x 2

Sabe que siempre he sido amigo
De guardar,lo del, corazon            A
Que casi siempre armo lios,
De los que, despues, lloraré

Abraaa-zamé Que te lo pido            EST.
Abraaa-zamé Que tengo frio

solo (G#m - C#m) x 4

Abraaa-zamé Que te lo pido            EST.
Abraaa-zamé Que tengo frio

Abraaa-zamé Que te lo pido            EST.
Abraaa-zamé Que tengo frio

G#m C#m x 6

A: G#m C#m
EST.: F# C#m
solo
  B      T      B      T           B    T         B     T
|-------------------------------|---------------------------------|
|-9-12----------------12--------|-12----14------------------------|
|-----------------------11-13---|-----------------------------11--|
|-------------------------------|---------------------9-11-13-----|
|-------------------------------|----------------9-11-------------|
|-------------------------------|---------------------------------|

|-------------------------------|---------------------------------|
|-------------------------------|---------------------------------|
|---------------------11-13-11--|---------------------------------|
|-13--------------------------11|-13-11-9-11---------------9-11-9-|
|-------------------------------|---------------------------------|
|-------------------------------|---------------------------------|

|-------------------------------|---------------------------------|
|-------------------------------|-----9-12------------------------|
|-------------------------------|---------------------------------|
|-11-13-13-13-11-13----13-11-9--|-11---------------------9-11-13--|
|-------------------------------|---------------------------------|
|-------------------------------|---------------------------------|

|-------------------------------|---------------------------------|
|------------------------12-----|-12-14-14----12-14-16-16-16-16---|14-12-------|
|-------11----13-11-13------13--|----------13---------------------|------13-11-|
|-11-13----13-------------------|---------------------------------|
|-------------------------------|---------------------------------|
|-------------------------------|---------------------------------|

            
            
Suggest correction
Creating personal tab
Creating personal tab
You can edit any tab online and save it as your Personal.

You can edit, replace or remove any tab part or add personal notes – all changes will be seen only by you.

Personal tabs can be accessed anytime from any device, even offline.
Learn more »
Give kudos to tab author, rate the tab!
1 2 3 4 5
comments
print report bad tab
guest
Wanna post a correction for this tab? Suggest correction