Oops, an error
Loading. Please wait.

Dicen Que La Distancia tab

40 views 1 this week
no commentswrite comment
1 2 3 4 5
3 more votes to show rating
add to favorites
×
Save as Personal and add changes to this tab that will be seen only by you. Learn more ›
×
You can save this tab as Personal to edit and correct it or add notes. All changes will be seen only by you. Learn more »
launch autoscroll
font size
0
reset
how to read this tab
guitar tuner
edit
Autoscroll
slow
fast
+/-
esc
set tempo
stop
Intro: F - Bb x 4

e|---------5-------------------5---------10~--|
b|--8h6-------8h6------8h6-------8h6----------|
g|------5------------5------5--------5--------|
d|--------------------------------------------|
a|--------------------------------------------|
e|--------------------------------------------|

e|---------5-------------------5--------------|
b|--8h6-------8h6------8h6-------8h6------8---|
g|------5------------5------5--------5--------|
d|--------------------------------------------|
a|--------------------------------------------|
e|--------------------------------------------|

e|---------5-------------------5---------10~--|
b|--8h6-------8h6------8h6-------8h6----------|
g|------5------------5------5--------5--------|
d|--------------------------------------------|
a|--------------------------------------------|
e|--------------------------------------------|

e|---------5----------------------------------|
b|--8h6-------8h6------8~---------------------|
g|------5----------5--------------------------|
d|--------------------------------------------|
a|--------------------------------------------|
e|--------------------------------------------|


F                  Gm
Quieres buscar la forma
de pasar un día entero.
quien llegara a verte aquí
si nunca hay tiempo.
Perdidos en la noche,
y si, nunca me alcanza, ¿y que?

C         Bb
hoy llegaras a verte
C         Bb
en este cielo.  [x 2]


Repite Intro


Cuantos destinos hay
colgados en la luna,
un día va a estallar
de tanta melancolía.
los días pasarán,
el tiempo se vuelve un cuento. ¿y que?

C         Bb
¿Donde estabas cuando estabas
cruzándote en el viento?
Viento que nunca sigue,
que nunca llega
hasta donde estás.
siempre con la locura,
con estas dudas
siempre por amar.

Intro cambiada
Repite del comienzo

C          Bb
¿Hoy llegaras a verte
C          Bb
en este cielo?

Repite intro
F Bb

            
            
Suggest correction
Creating personal tab
Creating personal tab
You can edit any tab online and save it as your Personal.

You can edit, replace or remove any tab part or add personal notes – all changes will be seen only by you.

Personal tabs can be accessed anytime from any device, even offline.
Learn more »
Give kudos to tab author, rate the tab!
1 2 3 4 5
comments
print report bad tab
guest
Wanna post a correction for this tab? Suggest correction