Oops, an error
Loading. Please wait.

Nunca Me Des La Espalda bass

74 views 1 this week
no commentswrite comment
1 2 3 4 5
3 more votes to show rating
add to favorites
×
Save as Personal and add changes to this tab that will be seen only by you. Learn more ›
×
You can save this tab as Personal to edit and correct it or add notes. All changes will be seen only by you. Learn more »
launch autoscroll
font size
0
reset
guitar tuner
edit
Autoscroll
slow
fast
+/-
esc
set tempo
stop
Pista: 10
Tiempo: 03'35"


Todo se ha ido en el olvido... (00'17")
G|-----------------------------------|
D|-----------------------------------|
A|-5-------------------5-------------|
E|-----5---7---5-7-5-7---7-5-7-------|


porque mi cuerpo se quedo dormido... (00'22")
G|-----------------------------------|
D|-----------------------------------|
A|-5---------------------------------|
E|-----5---7---5-7-7-7---------------|


Todo se ha ido es el fin... (00'27")
G|-----------------------------------|
D|-----------------------------------|
A|-5-------------------5-------------|
E|-----5---7---5-7-5-7---7-5-7-------|


y no hay lugara donde ir... (00'31")
G|-----------------------------------|
D|-----------------------------------|
A|-5---------------------------------|
E|-----5---7---5-7-7-5-7-------------|


Repite las 3 primeras

y no hay lugara donde ir... (00'49")
G|-----------------------------------|
D|-----------------------------------|
A|-5---------------------------------|
E|-----5---7---5-7-2-----------------|


Oh, leri o ho... (00'53")
G|-----------------------------------|
D|---4-------------------------------|
A|-5-----4-7----5--0-2---------------|
E|-----5------7--------2-------------|(X4)

Contina la secuencia para el resto de la cancion
con algunas variaciones.


Espero que lo disfruten creo que esta bien pero no
esta perfecto porque no soy Arnedo soy Tomás. Saludos.
                                   Tomás A.L.

            
            
Suggest correction
Creating personal tab
Creating personal tab
You can edit any tab online and save it as your Personal.

You can edit, replace or remove any tab part or add personal notes – all changes will be seen only by you.

Personal tabs can be accessed anytime from any device, even offline.
Learn more »
Give kudos to tab author, rate the tab!
1 2 3 4 5
comments
print report bad tab
guest
Wanna post a correction for this tab? Suggest correction