Oops, an error
Loading. Please wait.

Personalmente tab

version 3
version 3

Whole song

1,289 views 18 this week
no commentswrite comment
1 2 3 4 5
3 more votes to show rating
add to favorites
×
Save as Personal and add changes to this tab that will be seen only by you. Learn more ›
×
You can save this tab as Personal to edit and correct it or add notes. All changes will be seen only by you. Learn more »
launch autoscroll
font size
0
reset
how to read this tab
guitar tuner
edit
Autoscroll
slow
fast
+/-
esc
set tempo
stop
Quise hacerle un par de modificaciones a la tab que estaba porque tenia algunos
errores. Por cualquier cosa mi mail es: jonab_manu@

E-F#   (x4)

e------------------|-------------------------|
B---4/2-2----------|-4/7-7-2----2---2--------|
G-4---------------4|-----------------------4-|
D----------4-4-6---|-------------------------|
A------------------|-------------------------|
E------------------|-------------------------|

e-------------------|-------------------------------|
B-4/2-2-------------|-4/7-7-2--2-4-7-7--4-7-9-------|
G------------------4|-------------------------------|
D--------4-4-6-4----|-------------------------------|
A-------------------|-------------------------------|
E-------------------|-------------------------------|

E         F#
Deja que ruede
                       E
Como el aire entre las hojas
                     F#   E
Todo es oro, todo es sal


               F#
Que llegará el día
                    E
Que no quemen sus recuerdos
                    F#   C#m
Que se apagará el dolor


              F#   C#m
Personalmente creo
                 F#         C#m
Que todo esto es una locura
              F#   C#m
Personalmente creo
                 F#
Que todo esto es una locura


E-F# (x2)

e---------------------|-------------------------|
B-4up-4/2-2-----------|-4/7-7-2--2-2------------|
G--------------------4|--------------------4----|
D--------------4-4-6--|--------------4-4-6------|
A---------------------|-------------------------|
E---------------------|-------------------------|

Cómo es la vida
Cuántas veces en el cielo
Cuántas en la oscuridad


Que sólo es el tiempo
El que llevará tú vida
A dónde quieres que estés


Personalmente creo
Que todo esto es una locura
Personalmente creo
Que todo esto es una locura


E-F# (x2)

Solo:

1|-11-12-11------------------------------------|
2|-12-------12-11------------------------------|
3|-13-------------13---------------------------|
4|--------------------14-13--11h13-11----------|
5|---------------------------------------------|
6|---------------------------------------------|

1|----------------------------------11-12-14-14--12-14b16---|
2|-11-12-11----11----11-12-14-14----------------------------|
3|----------13----------------------------------------------|

  E                F#
Deja, sigamos remontando vuelo
  E                      F#
Deja, la luz siempre atraviesa el bosque
   E                 F#
Después es solo un recuerdo
   E             F#
Después solo pasará


C#m-F# (x4)
E

         F#    E
Deja que ruede
           F#  E
Llegará el día
     F#   E
La locura
     F#   E
La locura...

            
            
Suggest correction
Creating personal tab
Creating personal tab
You can edit any tab online and save it as your Personal.

You can edit, replace or remove any tab part or add personal notes – all changes will be seen only by you.

Personal tabs can be accessed anytime from any device, even offline.
Learn more »
Give kudos to tab author, rate the tab!
1 2 3 4 5
comments
print report bad tab
guest
Wanna post a correction for this tab? Suggest correction