Oops, an error
Loading. Please wait.

Que Podes Dar bass

58 views 1 this week
no commentswrite comment
1 2 3 4 5
3 more votes to show rating
add to favorites
×
Save as Personal and add changes to this tab that will be seen only by you. Learn more ›
×
You can save this tab as Personal to edit and correct it or add notes. All changes will be seen only by you. Learn more »
launch autoscroll
font size
0
reset
guitar tuner
edit
Autoscroll
slow
fast
+/-
esc
set tempo
stop
Intro

G|---------------
D|---------------
A|-5-5-5-5-5-5...
E|---------------

Verso

G|-------------
D|-------------
A|-------------
E|-3-3-3-3-3...

G|---------------
D|---------------
A|-5-5-5-5-5-5...
E|---------------

Coro
G|----------------------------------------------------------------
D|----------------------------------------------------------------
A|-------------5-5-7-7-9-9-10-10----------5-5-5-5-5-5--3-3-3-3-3--
E|-5-5-5-5-5-5-------------------5-5-5-5-5------------------------

G|-------------------------------------------
D|-------------------------------------------
A|-5-5-7-7-9-9-10-10-------------5-5-5-5-5...
E|-------------------5-5-5-5-5-5-------------

Termina el coro y hace la intro devuelta,
se repite verso y coro de nuevo.

Parte Final

G|------------------------------
D|------------------------------
A|-3-3-2-2--3-3-2-2-3-3---------
E|----------------------33333...

G|------------------------------
D|------------------------------
A|-3-3-2-2--3-3-2-2-3-3/55555...
E|------------------------------

Aclaraciones

...=tocar cada nota tantas veces necesarias
/= slide


Hola amigos!!! Bueno esta es mi primera transcripcion en 
para mi suena bastante bien, casi igual, lo unico que me falta
una partesita del final,que se hace en la 3ª cuerda, un saludo!
desde MENDOZA.

            
            
Suggest correction
Creating personal tab
Creating personal tab
You can edit any tab online and save it as your Personal.

You can edit, replace or remove any tab part or add personal notes – all changes will be seen only by you.

Personal tabs can be accessed anytime from any device, even offline.
Learn more »
Give kudos to tab author, rate the tab!
1 2 3 4 5
comments
print report bad tab
guest
Wanna post a correction for this tab? Suggest correction