Oops, an error
Loading. Please wait.

Tormenta De Jupiter tab

53 views 1 this week
no commentswrite comment
1 2 3 4 5
3 more votes to show rating
add to favorites
×
Save as Personal and add changes to this tab that will be seen only by you. Learn more ›
×
You can save this tab as Personal to edit and correct it or add notes. All changes will be seen only by you. Learn more »
launch autoscroll
font size
0
reset
how to read this tab
guitar tuner
edit
Autoscroll
slow
fast
+/-
esc
set tempo
stop
INTRO:

Primera guitarra: A5 F5 Em G5

Segunda guitarra:

             A5                                F5
1|------------------------------    -----------------------------
2|------------------------------    -------1----------1----------
3|--------5-2-------------5-2---    --------2----------2---------
4|--2--------------2------------    --3-----------3--------------
5|--0--------------0------------    --3-----------3--------------
6|------------------------------    --1-----------1--------------

Em (rasgido de Em tambien en forma de
en forma de rock and roll)                      G5
--------------------------------    -----------------------------
--------------------------------    -----------------------------
--------------------------------    -----------------------------
--2-----------------------------    -----------------------------
--2-----------------------------    --5-5-7----------------------
--0-----------------------------    --3-3-3----------------------


                   REPITE EL INTRO UNA VEZ


RIFF 1:                            RIFF 2:

            A5                               F5
1|-------------------------        --------------1-----------------1-
2|-------------------------        -------1----1-------------1---1---
3|-------------------------        ----------2-----------------2-----
4|--2--------2----2--------        --3------------------3------------
5|--0------0----0----0-----        --3------------------3------------
6|-------------------------        --1------------------1------------

RIFF 1
Calla, rie conmigo
RIFF 2
sobre la colina vieja
RIFF 1          F5
esto no lo olvidaras...
RIFF 1
sueña, mira, es la luna
RIFF 2
todo esto es un sueño
RIFF 1             RIFF 2
nunca mas podras salir...
A5      F5       A5    F5
besos.....         besos.....

 A5                          F5
cuando termina el mes de abril
                     Em
casi como un misterio
                       G5
todo comienza sin querer


SOLO:

1|--0-0-5--0-5-0-5------------|
2|----------------------------|
3|----------------------------| x2
4|----------------------------|
5|----------------------------|
6|----------------------------|


--7s1-0--7-5h7-7-7-7-7-7-7-(el 7 varias veces)--5-5---
------------------------------------------------------
------------------------------------------------------
------------------------------------------------------
------------------------------------------------------
------------------------------------------------------

RIFF 1
llenas hasta el vacio
RIFF 2
no puedo para tu mente
RIFF 1               RIFF 2
la salilda va a a venir
A5     F5      A5        F5
si paso...        es lo mejor

A5                         F5
cuando termina el mes de abril
                     Em
casi como un misterio
                        G5
todo comienza sin querer....

FINAL: A5 F5


BUENO AHI ESTA LA TABLATURA COMLETA, ACA UNA GUITARRA
HACE LOS ACORDES Y LA OTRA TAMBIEN, PERO CON LOS RIFF
 LA GUITARRA QUE HACE LOS PUNTEOS NO SE ESCUCHA MUCHO ASI
QUE PRESTENLE ATENCION AL TEMA

            
            
Suggest correction
Creating personal tab
Creating personal tab
You can edit any tab online and save it as your Personal.

You can edit, replace or remove any tab part or add personal notes – all changes will be seen only by you.

Personal tabs can be accessed anytime from any device, even offline.
Learn more »
Give kudos to tab author, rate the tab!
1 2 3 4 5
comments
print report bad tab
guest
Wanna post a correction for this tab? Suggest correction