Oops, an error
Loading. Please wait.

Veo Llover chords

34 views 1 this week
no commentswrite comment
1 2 3 4 5
3 more votes to show rating
add to favorites
×
Save as Personal and add changes to this tab that will be seen only by you. Learn more ›
×
You can save this tab as Personal to edit and correct it or add notes. All changes will be seen only by you. Learn more »
launch autoscroll
font size
0
reset
transpose
0
reset
display chords
guitar tuner
edit
Autoscroll
slow
fast
+/-
esc
set tempo
stop
Strumming
There is no strumming pattern for this song yet. and get +5 IQ
INTRO:
    A
e-|-0-------------|----|-
B-|-2-------------|----|-
G-|-2-------------|----|-
D-|-2-------------|-x4-|-
A-|-0-0-----0---0-|----|-
E-|-----3-0---3---|----|-
                            

Riff 1:
    A            D
e-|------------------------------|-
B-|-2----------------------------|-
G-|-2---2-5--2-5-7---7--5-2--7\5-|-
D-|-2---2-5--2-5-7---7--5-2--7\5-|-
A-|-0----------------------------|-
E-|------------------------------|-

A (riff 1)         D
De caminar y de golpear
        A                   D
Termina todo siempre de encajar,
    A      D    A        D
Veo llover, veo llover, así.

Volvé a empezar, volvé a seguir, 
Estás andando siempre por aquí,
Veo llover, veo llover sobre ti.

Sobre la miel te pegarás,
Alucinando siempre por estar, 
Veo llover, veo llover sobre ti.

G - F#  x2

B           A
Quédate mas bien en donde
B               A
Toda esa basura ni te rose,
B              A
Son muy buenos solo cuando
B        A
Están en los televisores,
Cuídate muy bien del conde,
No se sabe lo que esconde,
                                           E
Le gusta verte arrodillar ante su nombre.

    A     C     D C A G
e-|---------------------|-
B-|---------------------|-
G-|-2-2---5-5---7-5-----|-
D-|-2-2---5-5---7-5-7-5-|-
A-|-0-0---3-3---5-3-7-5-|-
E-|-----------------5-3-|-


AGUANTE LAS PELOTAS!!! Y TODO EL ROCK NACIONAL!!!

            
            
Suggest correction
Creating personal tab
Creating personal tab
You can edit any tab online and save it as your Personal.

You can edit, replace or remove any tab part or add personal notes – all changes will be seen only by you.

Personal tabs can be accessed anytime from any device, even offline.
Learn more »
Give kudos to tab author, rate the tab!
1 2 3 4 5
comments
print report bad tab
guest
Wanna post a correction for this tab? Suggest correction