Oops, an error
Loading. Please wait.

Me Gusta Ser Una Zorra tab

96 views 3 this week
no commentswrite comment
1 2 3 4 5
2 more votes to show rating
add to favorites
×
Save as Personal and add changes to this tab that will be seen only by you. Learn more ›
×
You can save this tab as Personal to edit and correct it or add notes. All changes will be seen only by you. Learn more »
launch autoscroll
font size
0
reset
how to read this tab
guitar tuner
edit
Autoscroll
slow
fast
+/-
esc
set tempo
stop
las vulpess-me gusta ser una zorra
nel pus  aki esta esta rola ke esta bn xida
de las vulpespar ke sea mi segundo tab
suena mejor ke las otras neta

intro
E|-----------------------
B|-----------------------
G|-----------------------
D|10-10-10-9-9-9-7-7-7---
A|10-10-10-9-9-9-7-7-7---
E|8--8--8--7-7-7-5-5-5---


esto se la lleva toda la cancion a exepcion de los coros
E|----------------
B|-----------------
G|-----------------
D|10----9----7-----
A|10-x--9-x--7-x---
E|8-----7----5-----

Si tú me vienes hablando de amor,
que dura la vida, cual caballo me guía
permíteme que te de mi opinión.
Mira imbécil que te den por culo

Me gusta ser una zorra
me gusta ser una zorra
me gusta ser una zorra


en esta parte se toka asi
E|-----------------------------------------
B|-----------------------------------------
G|-----------------------------------------
D|-10/7--5/3--3333333333333-7-7-777777777--
A|-10/7--5/3--3333333333333-7-7-777777777--
E|--8/5--3/1--1111111111111-5-5-555555555--


Eh, oh, ah, ah

Ay ay ay ay ay cabrón!

esta parte no se si este bien peo suena XD
E|-------------------------------------------------------------|
B|-------------------------------------------------------------|
G|-10-10-10-10-10-10-9-10-10--10-10-10-10-10-10-12-12-12-10--9-|
D|-------------------------------------------------------------|
A|-------------------------------------------------------------|
E|-------------------------------------------------------------|


Prefiero masturbarme, yo sola en mi cama,
antes que acostarme con quien me hable del mañana.
Prefiero joder con ejecutivos,
que te dan la pasta y luego vas al olvido.

Me gusta ser una zorra
me gusta ser una zorra
me gusta ser una zorra
Eh, oh, ah, ah
Ay ay ay ay ay cabrón!

Dejando ahora mi profesión,
te pido un deseo de corazón,
quiero meter un pico en la polla
a un cerdo carroza llamado Lou Reed.

Me gusta ser una zorra
me gusta ser una zorra
me gusta ser una zorra?

by joz3ar
xaludos a less
iadira y el fresco
y al panky
jaja

dudas comentarios
a jos_rockr@

            
            
Suggest correction
Creating personal tab
Creating personal tab
You can edit any tab online and save it as your Personal.

You can edit, replace or remove any tab part or add personal notes – all changes will be seen only by you.

Personal tabs can be accessed anytime from any device, even offline.
Learn more »
Give kudos to tab author, rate the tab!
1 2 3 4 5
comments
print report bad tab
guest
Wanna post a correction for this tab? Suggest correction