Oops, an error
Loading. Please wait.

Alps bass

version 2
version 2

Whole song

  • Fixed parts of the other version because they lite... Show more
67 views 3 this week
no commentswrite comment
1 2 3 4 5
3 more votes to show rating
add to favorites
×
Save as Personal and add changes to this tab that will be seen only by you. Learn more ›
×
You can save this tab as Personal to edit and correct it or add notes. All changes will be seen only by you. Learn more »
launch autoscroll
font size
0
reset
guitar tuner
edit
Autoscroll
slow
fast
+/-
esc
set tempo
stop
Author
About this tab version
Fixed parts of the other version because they literally did not try at all and mine is ten times better. Was this info helpful? Yes No
[Intro]

G|-------------------------------------|
D|--------4----------------------------|
A|-------------------------------------|
E|-----2-----2-2-----------------------|(x16)


[Verse/Chorus]

G|--------------------------------------------------------------------|
D|------9---------------6--------------4-6---------4-6-----4-4/6------|
A|----7---7-7----7-6--4---4-4----4-6--2----2--------------------------|
E|-----------------------------------------------2-----2--------------|


[Instrumental Break]

G|-------------------------------------|
D|--------4----------------------------|
A|-------------------------------------|
E|-----2-----2-2-----------------------|(x8)


[Last Chorus] 

(yeah idk what to call this part of the song lmao)

G|--------------------------------------------------------------------------|
D|--------------------------------------------------------------------------|
A|---7-7-7-7-7-7-7-7---4-4-4-4-4-4-4-4----2-2-2-2-2-2-----------------------|
E|--------------------------------------------------------2-2-2-2-2-2-2-2-2-|(x2)


G|--------------------------------------------------------------------|
D|------9---------------6--------------4-6---------4-6-----4-4/6------|
A|----7---7-7----7-6--4---4-4----4-6--2----2--------------------------|
E|-----------------------------------------------2-----2--------------|(x2)


************************************

| /   Slide up

************************************

            
            
Suggest correction
Creating personal tab
Creating personal tab
You can edit any tab online and save it as your Personal.

You can edit, replace or remove any tab part or add personal notes – all changes will be seen only by you.

Personal tabs can be accessed anytime from any device, even offline.
Learn more »
Give kudos to tab author, rate the tab!
1 2 3 4 5
comments
print report bad tab
guest
You may want to rate the tab now too:
select rating
Wanna post a correction for this tab? Suggest correction