Oops, an error
Loading. Please wait.

Flowers tab

1,297 views 1 this week
no commentswrite comment
1 2 3 4 5
1 last vote to show rating
add to favorites
×
Save as Personal and add changes to this tab that will be seen only by you. Learn more ›
×
You can save this tab as Personal to edit and correct it or add notes. All changes will be seen only by you. Learn more »
launch autoscroll
font size
0
reset
how to read this tab
guitar tuner
edit
Autoscroll
slow
fast
+/-
esc
set tempo
stop
Author
Song: Flowers
Artist: L’Aupaire
Album: Flowers


Wenn ihr keine Lust auf Barre-Akkorde habt, findet ihr unten eine alternative Version mit Capo ;)



Inro:

   C#                            Ebm        Bbm             F#

 |-----------------------------------------------------------------------------|
 |-----------------------------------------------------------------------------|
 |----10--------10--------10---------11--------6-------6-------3--------3------|
 |-----------------------------------------------------------------------------|
 |-----------------------------------------------------------------------------|
 |--9-----9--9------9--9------9--11------9--6-----6--6----6--2----2--2-----2---|



Vers:

   C#                            Ebm        Bbm             F#

 |-----------------------------------------------------------------------------|
 |-----------------------------------------------------------------------------|
 |----10--------10--------10---------11--------6-------6-------3--------3------|
 |-----------------------------------------------------------------------------|
 |-----------------------------------------------------------------------------|
 |--9-----9--9------9--9------9--11------9--6-----6--6----6--2----2--2-----2---|

This is my little farewell song  I just wrote for you

   C#                            Ebm        Bbm             F#

 |-----------------------------------------------------------------------------|
 |-----------------------------------------------------------------------------|
 |----10--------10--------10---------11--------6-------6-------3--------3------|
 |-----------------------------------------------------------------------------|
 |-----------------------------------------------------------------------------|
 |--9-----9--9------9--9------9--11------9--6-----6--6----6--2----2--2-----2---|

   you can listen to it all night long when I'm on the road


Pre-Chorus:

    G#                                   F#
 |---------------------------------------------------------------------------|
 |---------------------------------------------------------------------------|
 |-----5--------5--------5---------5--------3--------3-------3--------3------|
 |---------------------------------------------------------------------------|
 |---------------------------------------------------------------------------|
 |--4-----4--4-----4--4------4--4------4--2-----2--2----2--2----2--2-----2---|

    layin' awake you can't sleep

   G#                                    F#
 |---------------------------------------------------------------------------|
 |---------------------------------------------------------------------------|
 |-----5--------5--------5---------5--------3--------3-------3--------3------|
 |---------------------------------------------------------------------------|
 |---------------------------------------------------------------------------|
 |--4-----4--4-----4--4------4--4------4--2-----2--2----2--2----2--2-----2---|

I hope it kills your bad dreams


Chorus:

C#                    Ebm             Bbm     F#
get up and dance with flowers in your hair
          C#
don't you leave
Bbm                            G#
most of all don't be afraid to dance, don't be afraid to dance


   C#                            Ebm        Bbm             F#

 |-----------------------------------------------------------------------------|
 |-----------------------------------------------------------------------------|
 |----10--------10--------10---------11--------6-------6-------3--------3------|
 |-----------------------------------------------------------------------------|
 |-----------------------------------------------------------------------------|
 |--9-----9--9------9--9------9--11------9--6-----6--6----6--2----2--2-----2---|




Vers:

   C#                            Ebm        Bbm             F#

 |-----------------------------------------------------------------------------|
 |-----------------------------------------------------------------------------|
 |----10--------10--------10---------11--------6-------6-------3--------3------|
 |-----------------------------------------------------------------------------|
 |-----------------------------------------------------------------------------|
 |--9-----9--9------9--9------9--11------9--6-----6--6----6--2----2--2-----2---|

    This is my little goodbye poem that I wrote for you

   C#                            Ebm        Bbm             F#

 |-----------------------------------------------------------------------------|
 |-----------------------------------------------------------------------------|
 |----10--------10--------10---------11--------6-------6-------3--------3------|
 |-----------------------------------------------------------------------------|
 |-----------------------------------------------------------------------------|
 |--9-----9--9------9--9------9--11------9--6-----6--6----6--2----2--2-----2---|

with a little lack from time to time this word will come true




Pre-Chorus:

    G#                                   F#
 |---------------------------------------------------------------------------|
 |---------------------------------------------------------------------------|
 |-----5--------5--------5---------5--------3--------3-------3--------3------|
 |---------------------------------------------------------------------------|
 |---------------------------------------------------------------------------|
 |--4-----4--4-----4--4------4--4------4--2-----2--2----2--2----2--2-----2---|

    layin' awake you can't sleep

   G#                                    F#
 |---------------------------------------------------------------------------|
 |---------------------------------------------------------------------------|
 |-----5--------5--------5---------5--------3--------3-------3--------3------|
 |---------------------------------------------------------------------------|
 |---------------------------------------------------------------------------|
 |--4-----4--4-----4--4------4--4------4--2-----2--2----2--2----2--2-----2---|

I hope it kills your bad dreams



Chorus:

C#                    Ebm             Bbm     F#
get up and dance with flowers in your hair
          C#
don't you leave
Bbm                            G#
most of all don't be afraid to dance, don't be afraid to dance
C#                    Ebm             Bbm     F#
get up and dance with flowers in your hair
          C#
don't you leave
Bbm                            G#
most of all don't be afraid to dance, don't be afraid to dance



Bridge:
F#                               G#
  If your headphones should stop working
           F#
you should know I'm countin' the days
    G#
till I sing it to you face to face


C#      Ebm   Bm  F#
C#   Bbm      G#


Chorus:

C#                    Ebm             Bbm     F#
get up and dance with flowers in your hair
          C#
don't you leave
Bbm                            G#
most of all don't be afraid to dance, don't be afraid to dance
C#                    Ebm             Bbm     F#
get up and dance with flowers in your hair
          C#
don't you leave
Bbm                            G#
most of all don't be afraid to dance, don't be afraid to dance




Alternative Version: Capo am Ersten Bund


Intro, Vers: C Dm Am F

Pre-Chorus, Bridge: F  G  F  G

Chorus: C Dm Am F
        C Am G




            
            
Suggest correction
Creating personal tab
Creating personal tab
You can edit any tab online and save it as your Personal.

You can edit, replace or remove any tab part or add personal notes – all changes will be seen only by you.

Personal tabs can be accessed anytime from any device, even offline.
Learn more »
Give kudos to tab author, rate the tab!
1 2 3 4 5
comments
print report bad tab
guest
You may want to rate the tab now too:
select rating
Wanna post a correction for this tab? Suggest correction