Oops, an error
Loading. Please wait.

Devils Spoke tab

version 2
version 2

Whole song

5,089 views 18 this week
no commentswrite comment
1 2 3 4 5
x 4
add to favorites
×
Save as Personal and add changes to this tab that will be seen only by you. Learn more ›
×
You can save this tab as Personal to edit and correct it or add notes. All changes will be seen only by you. Learn more »
launch autoscroll
font size
0
reset
how to read this tab
guitar tuner
edit
Autoscroll
slow
fast
+/-
esc
set tempo
stop
-------------------------------------------------------------------------------
                             Devil’s Spoke – Laura Marling
-------------------------------------------------------------------------------
Tabbed by: Vasu

Tuning:CCCGCC

Capo on 2nd fret

Intro:

e|---0--0---0--0--0-0--0--0--0--0-0--0--0-0--0--0-0--0--0-0---|
B|---0--0---0--0--0-0--0--0--0--0-0--0--0-0--0--0-0--0--0-0---|
G|---0--0---0--0--0-0--0--0--0--0-0--0--0-0--0--0-0--0--0-0---|
D|---0--0---0--0--0-0--0--0--0--0-0--0--0-0--0--0-0--0--0-0---|
A|--12-12--10-10--9-9--7--5--3--0-0--3--0-0--3--0-0--3--0-0---|
E|--12-12--10-10--9-9--7--5--3--0-0--3--0-0--3--0-0--3--0-0---|

Verse (similar to intro):

I might be a part of this…

e|--0--0--0--0---0--0--0-0---0-0-0-0--0-0--0--0--0-0--0--0-0--0--0-0--0--0-0---|
B|--0--0--0--0---0--0--0-0---0-0-0-0--0-0--0--0--0-0--0--0-0--0--0-0--0--0-0---|
G|--0--0--0--0---0--0--0-0---0-0-0-0--0-0--0--0--0-0--0--0-0--0--0-0--0--0-0---|
D|--0--0--0--0---0--0--0-0---0-0-0-0--0-0--0--0--0-0--0--0-0--0--0-0--0--0-0---|  X2
A|-12-12-12-12--10-10-10-10--9-9-9-9--7-7--5--3--0-0--3--0-0--3--0-0--3--0-0---|
E|-12-12-12-12--10-10-10-10--9-9-9-9--7-7--5--3--0-0--3--0-0--3--0-0--3--0-0---|

Chorus:

All of this can be broken…

e|-0-0--0-0--0--0--0-0--0-0--0--0--0-0--0--0-0--0-0--0-0--0-0--0--0-0--0--0-0--0--|
B|-0-0--0-0--0--0--0-0--0-0--0--0--0-0--0--0-0--0-0--0-0--0-0--0--0-0--0--0-0--0--|
G|-0-0--0-0--0--0--0-0--0-0--0--0--0-0--0--0-0--0-0--0-0--0-0--0--0-0--0--0-0--0--|
D|-5-5--3-3--2--0--5-5--3-3--2--0--5-5--3--0-0--5-5--3-3--0-0--0--0-0--0--0-0--0--|
A|-5-5--3-3--2--0--5—5--3-3--2--0--5-5--3--0-0--5-5--3-3--0-0--3--0-0--3--0-0--3--|
E|-0-0--0-0--0--0--0-0--0-0--0--0--0-0--0--0-0--0-0--0-0--0-0--3--0-0--3--0-0--3--|

e|-0-0-|
B|-0-0-|
G|-0-0-|
D|-0-0-|
A|-0-0-|
E|-0-0-|

Bridge:

e|-0-0--0-0--0-0--0-0--|
B|-4-4--5-5--4-4--2-2--|
G|-0-0--0-0--0-0--0-0--| X2
D|-4-4--5-5--4-4--2-2--|
A|-0-0--0-0--0-0--0-0--|
E|-0-0--0-0--0-0--0-0--|

But the love of your life…
The arms that fed…
e|-0-0-0-0--|
B|-5-4-2-0--|
G|-0-0-0-0--| X4
D|-5-4-2-0--|
A|-0-0-0-0--|
E|-0-0-0-0--|

e|--0-0--0--0-0--0--0-0--0--0-0---|
B|--0-0--0--0-0--0--0-0--0--0-0---|
G|--0-0--0--0-0--0--0-0--0--0-0---|
D|--0-0--0--0-0--0--0-0--0--0-0---|
A|--0-0--3--0-0--3--0-0--3--0-0---|
E|--0-0--3--0-0--3--0-0--3--0-0---|



But I am your keeper…

e|-4-4-4-4--5-5-5-5--0-0-0-0-0-0-0-0--|
B|-4-4-4-4--5-5-5-5--0-0-0-0-0-0-0-0--|
G|-4-4-4-4--5-5-5-5--0-0-0-0-0-0-0-0--| X4
D|-4-4-4-4--5-5-5-5--0-0-0-0-0-0-0-0--|
A|-4-4-4-4--5-5-5-5--0-0-0-0-0-0-0-0--|
E|-4-4-4-4--5-5-5-5--0-0-0-0-0-0-0-0--|


Eye to eye…

e|--0--0--0--0---0--0--0-0---0-0-0-0--0-0--0--0--0-0--0--0-0--0--0-0--0--0-0---|
B|--0--0--0--0---0--0--0-0---0-0-0-0--0-0--0--0--0-0--0--0-0--0--0-0--0--0-0---|
G|--0--0--0--0---0--0--0-0---0-0-0-0--0-0--0--0--0-0--0--0-0--0--0-0--0--0-0---|
D|--0--0--0--0---0--0--0-0---0-0-0-0--0-0--0--0--0-0--0--0-0--0--0-0--0--0-0---|  X2
A|-12-12-12-12--10-10-10-10--9-9-9-9--7-7--5--3--0-0--3--0-0--3--0-0--3--0-0---|
E|-12-12-12-12--10-10-10-10--9-9-9-9--7-7--5--3--0-0--3--0-0--3--0-0--3--0-0---|

e|--0--0-0--|           
B|--0--0-0--|           
G|--0--0-0--| X7                
D|--0--0-0--|           
A|--3--0-0--|           
E|--3--0-0--|           


e|-0--0--0--|
B|-0--0--0--|
G|-0--0--0--|
D|-0--0--0--|
A|-5--3--0--|
E|-5--3--0--|


************************************

| /   slide up
| \   slide down
| h   hammer-on
| p   pull-off
| ~   vibrato
| +   harmonic
| x   Mute note
| b   Bend
| pb  Pre-bend
| br  Bend release
| pbr Pre-bend release
| brb Bend release bend

************************************

            
            
Suggest correction
Creating personal tab
Creating personal tab
You can edit any tab online and save it as your Personal.

You can edit, replace or remove any tab part or add personal notes – all changes will be seen only by you.

Personal tabs can be accessed anytime from any device, even offline.
Learn more »
comments
print report bad tab
guest
You may want to rate the tab now too:
select rating
Wanna post a correction for this tab? Suggest correction