Oops, an error
Loading. Please wait.

Next Time Live tab

1,237 views 54 this week
no commentswrite comment
1 2 3 4 5
x 4
add to favorites
×
Save as Personal and add changes to this tab that will be seen only by you. Learn more ›
×
You can save this tab as Personal to edit and correct it or add notes. All changes will be seen only by you. Learn more »
launch autoscroll
font size
0
reset
how to read this tab
guitar tuner
edit
Autoscroll
slow
fast
+/-
esc
set tempo
stop
Author
Difficulty
Based on a live solo performance (https://youtu.be/ECa1HqeqhCo?t=4m45s).

[Intro]
e|-----------------|-----------------|
B|-----------------|-----------------|
G|-4---2---4---2---|-4---2---4---2---|
D|---0---0---0---0-|---0---0---0---0-|
A|-----------------|-----------------|
E|-3---2---3---2---|-3---2---3---2---|

[Verse]
  It feels like     a long time        since I was     free
e|-----------------|-----------------|-----------------|-----------------|-----------------|
B|-----------------|-----------------|-----------------|-----------------|-----------------|
G|-4---2---4---2---|-4---2---4---2---|-9---9---9---9---|-4---2---4---2---|-4---2---4---2---|
D|---0---0---0---0-|---0---0---0---0-|---0---0---0---0-|---0---0---0---0-|---0---0---0---0-|
A|-----------------|-----------------|-----------------|-----------------|-----------------|
E|-3---2---3---2---|-3---2---3---2---|-8---8---8---8---|-3---2---3---2---|-3---2---3---2---|

  It feels like     the right time    to take that      seriously
e|-----------------|-----------------|-----------------|-----------------|-----------------|
B|-----------------|-----------------|-----------------|-----------------|-----------------|
G|-4---2---4---2---|-4---2---4---2---|-9---9---9---9---|-4---2---4---2---|-4---2---4---2---|
D|---0---0---0---0-|---0---0---0---0-|---0---0---0---0-|---0---0---0---0-|---0---0---0---0-|
A|-----------------|-----------------|-----------------|-----------------|-----------------|
E|-3---2---3---2---|-3---2---3---2---|-8---8---8---8---|-3---2---3---2---|-3---2---3---2---|

  It feels like     the trees are     a peculiar        green
e|-----------------|-----------------|-----------------|-----------------|-----------------|
B|-----------------|-----------------|-----------------|-----------------|-----------------|
G|-4---2---4---2---|-4---2---4---2---|-9---9---9---9---|-4---2---4---2---|-4---2---4---2---|
D|---0---0---0---0-|---0---0---0---0-|---0---0---0---0-|---0---0---0---0-|---0---0---0---0-|
A|-----------------|-----------------|-----------------|-----------------|-----------------|
E|-3---2---3---2---|-3---2---3---2---|-8---8---8---8---|-3---2---3---2---|-3---2---3---2---|

  It feels like     the air is        hung         heavily  
e|-----------------|-----------------|-----------------|-----------------|-----------------|
B|-----------------|-----------------|-----------------|-----------------|-----------------|
G|-4---2---4---2---|-4---2---4---2---|-9---9---9---9---|-4---2---4---2---|-4---2---4---2---|
D|---0---0---0---0-|---0---0---0---0-|---0---0---0---0-|---0---0---0---0-|---0---0---0---0-|
A|-----------------|-----------------|-----------------|-----------------|-----------------|
E|-3---2---3---2---|-3---2---3---2---|-8---8---8---8---|-3---2---3---2---|-3---2---3---2---|

[Chorus]
  I don't  want     to be    the kind
e|-----------------|-----------------|-----------------|
B|-----------------|-----------------|-----------------|
G|-4---4---5---5---|-7---7---9---9---|-9---9---9---9---|
D|---0---0---0---0-|---0---0---0---0-|---0---0---0---0-|
A|-----------------|-----------------|-----------------|
E|-3---4---5---5---|-7---7---8---8---|-8---8---8---8---|

  Struck   by fear  to run    and hide 
e|-----------------|-----------------|-----------------|
B|-----------------|-----------------|-----------------|
G|-4---4---5---5---|-7---7---9---9---|-9---9---9---9---|
D|---0---0---0---0-|---0---0---0---0-|---0---0---0---0-|
A|-----------------|-----------------|-----------------|
E|-3---4---5---5---|-7---7---8---8---|-8---8---8---8---|

  I'll do better    next time
e|-----------------|-----------------|
B|-----------------|-----------------|
G|-9---9---9---9---|-9---9---9---9---|
D|---0---0---0---0-|---0---0---0---0-|
A|-----------------|-----------------|
E|-8---8---8---8---|-8---8---8---8---|

[Verse]
  It feels like     warning signs     were there for us  to see
e|-----------------|-----------------|-----------------|-----------------|-----------------|
B|-----------------|-----------------|-----------------|-----------------|-----------------|
G|-4---2---4---2---|-4---2---4---2---|-9---9---9---9---|-4---2---4---2---|-4---2---4---2---|
D|---0---0---0---0-|---0---0---0---0-|---0---0---0---0-|---0---0---0---0-|---0---0---0---0-|
A|-----------------|-----------------|-----------------|-----------------|-----------------|
E|-3---2---3---2---|-3---2---3---2---|-8---8---8---8---|-3---2---3---2---|-3---2---3---2---|

  It feels like     they taught us    ignore     diligently
e|-----------------|-----------------|-----------------|-----------------|-----------------|
B|-----------------|-----------------|-----------------|-----------------|-----------------|
G|-4---2---4---2---|-4---2---4---2---|-9---9---9---9---|-4---2---4---2---|-4---2---4---2---|
D|---0---0---0---0-|---0---0---0---0-|---0---0---0---0-|---0---0---0---0-|---0---0---0---0-|
A|-----------------|-----------------|-----------------|-----------------|-----------------|
E|-3---2---3---2---|-3---2---3---2---|-8---8---8---8---|-3---2---3---2---|-3---2---3---2---|

  I feel her,       I hear her        weakly        scream
e|-----------------|-----------------|-----------------|-----------------|-----------------|
B|-----------------|-----------------|-----------------|-----------------|-----------------|
G|-4---2---4---2---|-4---2---4---2---|-9---9---9---9---|-4---2---4---2---|-4---2---4---2---|
D|---0---0---0---0-|---0---0---0---0-|---0---0---0---0-|---0---0---0---0-|---0---0---0---0-|
A|-----------------|-----------------|-----------------|-----------------|-----------------|
E|-3---2---3---2---|-3---2---3---2---|-8---8---8---8---|-3---2---3---2---|-3---2---3---2---|

[Chorus]
  Am I     really    so      unkind
e|-----------------|-----------------|-----------------|
B|-----------------|-----------------|-----------------|
G|-4---4---5---5---|-7---7---9---9---|-9---9---9---9---|
D|---0---0---0---0-|---0---0---0---0-|---0---0---0---0-|
A|-----------------|-----------------|-----------------|
E|-3---4---5---5---|-7---7---8---8---|-8---8---8---8---|

  To turn   around  and close   my eyes?
e|-----------------|-----------------|-----------------|
B|-----------------|-----------------|-----------------|
G|-4---4---5---5---|-7---7---9---9---|-9---9---9---9---|
D|---0---0---0---0-|---0---0---0---0-|---0---0---0---0-|
A|-----------------|-----------------|-----------------|
E|-3---4---5---5---|-7---7---8---8---|-8---8---8---8---|

  I'll do better    next time
e|-----------------|-----------------|
B|-----------------|-----------------|
G|-9---9---9---9---|-9---9---9---9---|
D|---0---0---0---0-|---0---0---0---0-|
A|-----------------|-----------------|
E|-8---8---8---8---|-9---9---9---9---|

  I'll do better    next time
e|-----------------|-----------------|
B|-----------------|-----------------|
G|-9---9---9---9---|-9---9---9---9---|
D|---0---0---0---0-|---0---0---0---0-|
A|-----------------|-----------------|
E|-8---8---8---8---|-8---8---8---8---|

[Bridge]
e|-------------------|-----------------|
B|-------------------|-----------------|
G|-12---11---9---7---|-5---4---4---5---|
D|----0----0---0---0-|---0---0---0---0-|
A|-------------------|-----------------|
E|-12---10---8---7---|-5---3---4---5---|

e|-------------------|-----------------|
B|-------------------|-----------------|
G|-12---11---9---7---|-5---4---4---5---|
D|----0----0---0---0-|---0---0---0---0-|
A|-------------------|-----------------|
E|-12---10---8---7---|-5---3---4---5---|

e|-------------------|-----------------|-----------------|-----------------|
B|-------------------|-----------------|-----------------|-----------------|
G|-12---11---9---7---|-5---4---4---5---|-5---5---7---7---|-9---9---9---9---|
D|----0----0---0---0-|---0---0---0---0-|---0---0---0---0-|---0---0---0---0-|
A|-------------------|-----------------|-----------------|-----------------|
E|-12---10---8---7---|-5---3---4---5---|-5---5---7---7---|-8---8---8---8---|

[Verse]
  It feels like     the last breath   we will ever      share
e|-----------------|-----------------|-----------------|-----------------|-----------------|
B|-----------------|-----------------|-----------------|-----------------|-----------------|
G|-4---2---4---2---|-4---2---4---2---|-9---9---9---9---|-4---2---4---2---|-4---2---4---2---|
D|---0---0---0---0-|---0---0---0---0-|---0---0---0---0-|---0---0---0---0-|---0---0---0---0-|
A|-----------------|-----------------|-----------------|-----------------|-----------------|
E|-3---2---3---2---|-3---2---3---2---|-8---8---8---8---|-3---2---3---2---|-3---2---3---2---|

  It feels like     the last time     I'll run my fingers through your hair
e|-----------------|-----------------|-----------------|-----------------|-----------------|
B|-----------------|-----------------|-----------------|-----------------|-----------------|
G|-4---2---4---2---|-4---2---4---2---|-9---9---9---9---|-4---2---4---2---|-4---2---4---2---|
D|---0---0---0---0-|---0---0---0---0-|---0---0---0---0-|---0---0---0---0-|---0---0---0---0-|
A|-----------------|-----------------|-----------------|-----------------|-----------------|
E|-3---2---3---2---|-3---2---3---2---|-8---8---8---8---|-3---2---3---2---|-3---2---3---2---|

[Chorus]
  I can  no longer  close    my eyes
e|-----------------|-----------------|-----------------|
B|-----------------|-----------------|-----------------|
G|-4---4---5---5---|-7---7---9---9---|-9---9---9---9---|
D|---0---0---0---0-|---0---0---0---0-|---0---0---0---0-|
A|-----------------|-----------------|-----------------|
E|-3---4---5---5---|-7---7---8---8---|-8---8---8---8---|
 
  While  the world  around me   dies
e|-----------------|-----------------|-----------------|
B|-----------------|-----------------|-----------------|
G|-4---4---5---5---|-7---7---9---9---|-9---9---9---9---|
D|---0---0---0---0-|---0---0---0---0-|---0---0---0---0-|
A|-----------------|-----------------|-----------------|
E|-3---4---5---5---|-7---7---8---8---|-8---8---8---8---|

  At the hands of    folks      like      me
e|-----------------|---------------------|---------0---------0--|
B|-----------------|-10---10---11---11---|-13---13---13---13----|
G|-9---9---9---9---|----0----0----0----0-|----0---------0-------|
D|---0---0---0---0-|---------------------|----------------------|
A|-----------------|--8----8----9----9---|-10---10---10---10----|
E|-9---9---9---9---|---------------------|----------------------|

  It   seems   they   fail  to see
e|-3--3--4--4-|-4--4--8--8-|-9--9--9--9--|
B|-0--0--0--0-|-2--2--6--6-|-7--7--7--7--|
G|-0--0--0--0-|-3--3--7--7-|-8--8--8--8--|
D|------------|------------|-------------|
A|-3--3--4--4-|-4--4--8--8-|-9--9--9--9--|
E|------------|------------|-------------|

  There may never   next time be
e|-----------------|-----------------|
B|-----------------|-----------------|
G|-9---9---9---9---|-9---9---9---9---|
D|---0---0---0---0-|---0---0---0---0-|
A|-----------------|-----------------|
E|-8---8---8---8---|-8---8---8---8---|

[Outro]
e|----0----------------|-----------------|
B|---------12---10-----|-----------------|
G|-12---11----9----7---|-5---4---4---5---|
D|-------------------0-|---0---0---0---0-|
A|---------------------|-----------------|
E|-12---10----8----7---|-5---3---4---5---|

e|----0----------------|-----------------|
B|---------12---10-----|-----------------|
G|-12---11----9----7---|-5---4---4---5---|
D|-------------------0-|---0---0---0---0-|
A|---------------------|-----------------|
E|-12---10----8----7---|-5---3---4---5---|

e|----0----------------|-----------------|
B|---------12---10-----|-----------------|
G|-12---11----9----7---|-5---4---4---5---|
D|-------------------0-|---0---0---0---0-|
A|---------------------|-----------------|
E|-12---10----8----7---|-5---3---4---5---|

e|-------------------|-----------------|-----------------|-----------------|
B|-------------------|-----------------|-----------------|-----------------|
G|-12---11---9---7---|-5---4---4---5---|-5---5---7---7---|-9---9---9---9---|
D|----0----0---0---0-|---0---0---0---0-|---0---0---0---0-|---0---0---0---0-|
A|-------------------|-----------------|-----------------|-----------------|
E|-12---10---8---7---|-5---3---4---5---|-5---5---7---7---|-8---8---8---8---|

e|-----------------|-----------|
B|-----------------|-----------|
G|-4---2---4---2---|-4---2---4-|
D|---0---0---0---0-|---0---0---|
A|-----------------|-----------|
E|-3---2---3---2---|-3---2---3-|


            
            
Suggest correction
Creating personal tab
Creating personal tab
You can edit any tab online and save it as your Personal.

You can edit, replace or remove any tab part or add personal notes – all changes will be seen only by you.

Personal tabs can be accessed anytime from any device, even offline.
Learn more »
comments
print report bad tab
guest
You may want to rate the tab now too:
select rating
Wanna post a correction for this tab? Suggest correction