Oops, an error
Loading. Please wait.
We have Chord Pro version of Black Eyed Susan.
It's the closest thing you can get to the original song and it has interactive parts. Check out the tab »
×

Black Eyed Susan tab

version 2
version 2

Whole song

  • This version has the lead, as well as the chord structures tabbed.
70 views 1 this week
no commentswrite comment
1 2 3 4 5
2 more votes to show rating
add to favorites
×
Save as Personal and add changes to this tab that will be seen only by you. Learn more ›
×
You can save this tab as Personal to edit and correct it or add notes. All changes will be seen only by you. Learn more »
launch autoscroll
font size
0
reset
how to read this tab
guitar tuner
edit
Autoscroll
slow
fast
+/-
esc
set tempo
stop
About this tab version
This version has the lead, as well as the chord structures tabbed. Was this info helpful? Yes No
Black Eyed Susan  
Laura Veirs

Capo 4

[Intro]
        Lead : (you can usually get these notes in while strumming)
      e|----------|----------|----------|---------|
      B|--------0-|----------|--------0-|---------|
      G|----------|----------|----------|-------2-|
      D|--2-0-2---|--2-0-2-2-|--2-0-2---|-2-0-2---|
      A|----------|----------|----------|---------|
      E|----------|----------|----------|---------|


Riff for Whole song {Rythm} 1_+a  2_+a  3_+a  4_+a
                            x v^  x v^  x v^  x v^

[Song] 
  Am                   E                     Am                E          Am
e|---0----0----0----0-|---0----0----0----0--|---0---0---0---0-|----0----0----0-|
b|---1----1----1----1-|---0----0----0----0--|---1---1---1---1-|----0----0----1-|
g|---2----2----2----2-|---1----1----1----1--|---2---2---2---2-|----1----1----2-|
D|---2----2----2----2-|---2----2--2-2----2--|---2---2---2---2-|----2----2----2-|
A|-0---------0--------|---2--2-------- 2-2--|-0-------0-------|----2--2-2--0---|
E|------0---------0---|-0-------------------|-----0-------0---|-0--0-----------|

Am                                           E             
Twenty days walking so lonely and talking to myself and the rocks and sand
Am                                               E             Am
Got me to thinking 'bout going and drinking in a tavern with a clean shaven man 
Am                                                   E
Just when I thought all souls had been bought by the devil here long ago
Am                                               E             Am
There did I see when I knelt to my knee I little Texas flower grow 

Am                                            E
Black-eyed Susan by the roadside blooming all yellow like sunshine red like wine
Am                                        E                     Am
Flower like you in a desert this cruel my my you're a rare rare find

[Interlude]

  Am      C         G             Am      C       G        Am    E     Am
e|-3/5-----------3--------------||-3/5-----------3--------------------------|
b|------------3/5--5\3-3--1-0-1-||------------3/5--5\3-3--1-0-1-3-1-0-------|
g|--------0---------------------||--------0---------------------------2-0-2-|
D|-----0h2----------------------||-----0h2----------------------------------|
A|---------3--------------------||---------3--------------------------------|
E|------------------------------||------------------------------------------|

[Song]
 
Am                                                      E    
Well my newfound friend gave my heart a mend I sang her songs of my wayward ways
Am                                                  E
When day turned to night in the crystal moonlight I confirmed her unwavering gaze 
Am                                                E
As the days unravelled I stayed in the gravel and Susan kept her eye on me
Am                                                    E              Am
With my eye on her i felt my heart all astir with the joy of camaraderie 

Am                                            E
Black-eyed Susan by the roadside blooming all yellow like sunshine red like wine
Am                                        E                     Am
Flower like you in a desert this cruel my my you're a rare rare find

***************

x hit note
^ strum up
v strum down
/ slide up
\ slide down
h hammer on

***************

Am x02210
C  x32010
E  022100
G  320003

***************

            
            
Suggest correction
Creating personal tab
Creating personal tab
You can edit any tab online and save it as your Personal.

You can edit, replace or remove any tab part or add personal notes – all changes will be seen only by you.

Personal tabs can be accessed anytime from any device, even offline.
Learn more »
Give kudos to tab author, rate the tab!
1 2 3 4 5
comments
print report bad tab
guest
You may want to rate the tab now too:
select rating
Wanna post a correction for this tab? Suggest correction