Oops, an error
Loading. Please wait.

Ocean Night Song tab

3,104 views 1 this week
1 commentread comment
1 2 3 4 5
1 last vote to show rating
add to favorites
×
Save as Personal and add changes to this tab that will be seen only by you. Learn more ›
×
You can save this tab as Personal to edit and correct it or add notes. All changes will be seen only by you. Learn more »
launch autoscroll
font size
0
reset
how to read this tab
guitar tuner
edit
Autoscroll
slow
fast
+/-
esc
set tempo
stop
This song is played with a capo on the 5th fret.

The = between the 3rd and 5th fret is the slide.

E-----3---------------3-------------------2---------------0-----------|
B---------3=5-----0-------3=5-----0---3-------3---3---3-------3---0---|
G-------0-------0-------0-------0-------0-------0-------0-------0-----|
D---------------------------------------------------------------------|
A-----------------------------------0-------0-------3-------3---------|
E---0-------0-------0-------0-----------------------------------------|

            
            
Suggest correction
Creating personal tab
Creating personal tab
You can edit any tab online and save it as your Personal.

You can edit, replace or remove any tab part or add personal notes – all changes will be seen only by you.

Personal tabs can be accessed anytime from any device, even offline.
Learn more »
Give kudos to tab author, rate the tab!
1 2 3 4 5
comments
print report bad tab
1 comment total.
0 reply
Wang Tang 10 Jan 10, 2010 01:39 PM

Fabulous tab!
Only thing I found missing is the little "bridge", where she sings
"I wonder 'bout the hers of the sea, if they will hurt or if they will help me".
From hearing the song and this youtube-vid (http://www.youtube.com/watch?v=TbBtigz46AE) I think this little part should be:

E---------0-------0-------0---------------0-------0-------0-----------|
B-----3-------3-------3-------3---3---3-------3-------3-------3---0---|
G-------2-------2-------2-------2-------2-------2-------2-------2-----|
D---0------(0)-----(0)-----(0)------0------(0)-----(0)-----(0)--------|
A---------------------------------------------------------------------|
E---------------------------------------------------------------------|

guest
Wanna post a correction for this tab? Suggest correction