Oops, an error
Loading. Please wait.

Partner In Crime tab

19 views 1 this week
no commentswrite comment
1 2 3 4 5
3 more votes to show rating
add to favorites
×
Save as Personal and add changes to this tab that will be seen only by you. Learn more ›
×
You can save this tab as Personal to edit and correct it or add notes. All changes will be seen only by you. Learn more »
launch autoscroll
font size
0
reset
how to read this tab
guitar tuner
edit
Autoscroll
slow
fast
+/-
esc
set tempo
stop
Author
Difficulty
About this tab version
There are two guitars, but it works as well with only one. Was this info helpful? Yes No
[Intro]
e|-------------------------------------------------------------------------------|
B|-------------------------------------------------------------------------------|
G|-16-16-16-16-16-16-16-16-14-14-13-14-14-16-16-16-16-16-16-16-16-14-14-13-11-11-|
D|-xx-xx-xx-xx-xx-xx-xx-xx-xx-xx-xx-xx-xx-xx-xx-xx-xx-xx-xx-xx-xx-xx-xx-xx-xx-xx-|
A|-14-14-14-14-14-14-14-14-12-12-11-12-12-14-14-14-14-14-14-14-14-12-12-11-9--9--|
E|-------------------------------------------------------------------------------|

e|-------------------------------------------------------------------------------|
B|-------------------------------------------------------------------------------|
G|-16-16-16-16-16-16-16-16-14-14-13-14-14-16-16-16-16-16-16-16-16-14-14-13-11-11-|
D|-xx-xx-xx-xx-xx-xx-xx-xx-xx-xx-xx-xx-xx-xx-xx-xx-xx-xx-xx-xx-xx-xx-xx-xx-xx-xx-|
A|-14-14-14-14-14-14-14-14-12-12-11-12-12-14-14-14-14-14-14-14-14-12-12-11-9--9--|
E|-------------------------------------------------------------------------------|

e|--------------------------------------------------------------------------------------------------------|
B|--------------------------------------------------------------------------------------------------------|
G|---------------------------4--4-4--4-4--4-4--4-4--4--2--2-2--2-2--2-2--2-2--2---------------------------|
D|-2--2-2--2-2--2-2--2-2--2--4--4-4--4-4--4-4--4-4--4--2--2-2--2-2--2-2--2-2--2--2--2-2--2-2--2-2--2-2--2-|
A|-2--2-2--2-2--2-2--2-2--2--2--2-2--2-2--2-2--2-2--2--0--0-0--0-0--0-0--0-0--0--2--2-2--2-2--2-2--2-2--2-|
E|-0--0-0--0-0--0-0--0-0--0------------------------------------------------------0--0-0--0-0--0-0--0-0--0-|

[Verse]
e|---------------------------------------------------------|
B|---------------------------------------------------------|
G|-9-9-9-9-9-9-9-9-9-9-9-9-9-9-4-4-4-4-4-4-4-2-2-2-2-2-2-2-|
D|-9-9-9-9-9-9-9-9-9-9-9-9-9-9-4-4-4-4-4-4-4-2-2-2-2-2-2-2-|
A|-7-7-7-7-7-7-7-7-7-7-7-7-7-7-2-2-2-2-2-2-2-0-0-0-0-0-0-0-|
E|---------------------------------------------------------|
  **********************************************************

e|---------------------------------------------------------|
B|---------------------------------------------------------|
G|-9-9-9-9-9-9-9-9-9-9-9-9-9-9-4-4-4-4-4-4-4-2-2-2-2-2-2-2-|
D|-9-9-9-9-9-9-9-9-9-9-9-9-9-9-4-4-4-4-4-4-4-2-2-2-2-2-2-2-|
A|-7-7-7-7-7-7-7-7-7-7-7-7-7-7-2-2-2-2-2-2-2-0-0-0-0-0-0-0-|
E|---------------------------------------------------------|
************************************************************

e|---------------------------------------------------------|
B|---------------------------------------------------------|
G|-9-9-9-9-9-9-9-9-9-9-9-9-9-9-4-4-4-4-4-4-4-2-2-2-2-2-2-2-|
D|-9-9-9-9-9-9-9-9-9-9-9-9-9-9-4-4-4-4-4-4-4-2-2-2-2-2-2-2-|
A|-7-7-7-7-7-7-7-7-7-7-7-7-7-7-2-2-2-2-2-2-2-0-0-0-0-0-0-0-|
E|---------------------------------------------------------|
************************************************************

e|---------------------------------------------------------|
B|---------------------------------------------------------|
G|-9-9-9-9-9-9-9-9-9-9-9-9-9-9-4-4-4-4-4-4-4-2-2-2-2-2-2-2-|
D|-9-9-9-9-9-9-9-9-9-9-9-9-9-9-4-4-4-4-4-4-4-2-2-2-2-2-2-2-|
A|-7-7-7-7-7-7-7-7-7-7-7-7-7-7-2-2-2-2-2-2-2-0-0-0-0-0-0-0-|
E|---------------------------------------------------------|
******************************

[Chorus]
e|----------------------------------------------------------------------------------------------------------|
B|----------------------------------------------------------------------------------------------------------|
G|-9-9-9-9-9-9-9-9-9-9-9-9-9-9-6-6-6-6-6-6-6-6-6-6-6-6-6-6-4-4-4-4-4-4-4-4-4-4-4-4-4-4----------------------|
D|-9-9-9-9-9-9-9-9-9-9-9-9-9-9-6-6-6-6-6-6-6-6-6-6-6-6-6-6-4-4-4-4-4-4-4-4-4-4-4-4-4-4-7-7-7-6-6-6-7-7-7-9-9|
A|-7-7-7-7-7-7-7-7-7-7-7-7-7-7-4-4-4-4-4-4-4-4-4-4-4-4-4-4-2-2-2-2-2-2-2-2-2-2-2-2-2-2-7-7-7-6-6-6-7-7-7-9-9|
E|-------------------------------------------------------------------------------------5-5-5-4-4-4-5-5-5-7-7|

e|----------------------------------------------------------------------------------------------------------|
B|----------------------------------------------------------------------------------------------------------|
G|-9-9-9-9-9-9-9-9-9-9-9-9-9-9-6-6-6-6-6-6-6-6-6-6-6-6-6-6-4-4-4-4-4-4-4-4-4-4-4-4-4-4----------------------|
D|-9-9-9-9-9-9-9-9-9-9-9-9-9-9-6-6-6-6-6-6-6-6-6-6-6-6-6-6-4-4-4-4-4-4-4-4-4-4-4-4-4-4-7-7-7-7-7-7-7-7-7-7-7|
A|-7-7-7-7-7-7-7-7-7-7-7-7-7-7-4-4-4-4-4-4-4-4-4-4-4-4-4-4-2-2-2-2-2-2-2-2-2-2-2-2-2-2-7-7-7-7-7-7-7-7-7-7-7|
E|-------------------------------------------------------------------------------------5-5-5-5-5-5-5-5-5-5-5|

[Verse]
e|---------------------------------------------------------|
B|---------------------------------------------------------|
G|-9-9-9-9-9-9-9-9-9-9-9-9-9-9-4-4-4-4-4-4-4-2-2-2-2-2-2-2-|
D|-9-9-9-9-9-9-9-9-9-9-9-9-9-9-4-4-4-4-4-4-4-2-2-2-2-2-2-2-|
A|-7-7-7-7-7-7-7-7-7-7-7-7-7-7-2-2-2-2-2-2-2-0-0-0-0-0-0-0-|
E|---------------------------------------------------------|
  **********************************************************

e|---------------------------------------------------------|
B|---------------------------------------------------------|
G|-9-9-9-9-9-9-9-9-9-9-9-9-9-9-4-4-4-4-4-4-4-2-2-2-2-2-2-2-|
D|-9-9-9-9-9-9-9-9-9-9-9-9-9-9-4-4-4-4-4-4-4-2-2-2-2-2-2-2-|
A|-7-7-7-7-7-7-7-7-7-7-7-7-7-7-2-2-2-2-2-2-2-0-0-0-0-0-0-0-|
E|---------------------------------------------------------|
************************************************************

e|---------------------------------------------------------|
B|---------------------------------------------------------|
G|-9-9-9-9-9-9-9-9-9-9-9-9-9-9-4-4-4-4-4-4-4-2-2-2-2-2-2-2-|
D|-9-9-9-9-9-9-9-9-9-9-9-9-9-9-4-4-4-4-4-4-4-2-2-2-2-2-2-2-|
A|-7-7-7-7-7-7-7-7-7-7-7-7-7-7-2-2-2-2-2-2-2-0-0-0-0-0-0-0-|
E|---------------------------------------------------------|
  **********************************************************

e|---------------------------------------------------------|
B|---------------------------------------------------------|
G|-9-9-9-9-9-9-9-9-9-9-9-9-9-9-4-4-4-4-4-4-4-2-2-2-2-2-2-2-|
D|-9-9-9-9-9-9-9-9-9-9-9-9-9-9-4-4-4-4-4-4-4-2-2-2-2-2-2-2-|
A|-7-7-7-7-7-7-7-7-7-7-7-7-7-7-2-2-2-2-2-2-2-0-0-0-0-0-0-0-|
E|---------------------------------------------------------|
*******************************

[Chorus]
e|----------------------------------------------------------------------------------------------------------|
B|----------------------------------------------------------------------------------------------------------|
G|-9-9-9-9-9-9-9-9-9-9-9-9-9-9-6-6-6-6-6-6-6-6-6-6-6-6-6-6-4-4-4-4-4-4-4-4-4-4-4-4-4-4----------------------|
D|-9-9-9-9-9-9-9-9-9-9-9-9-9-9-6-6-6-6-6-6-6-6-6-6-6-6-6-6-4-4-4-4-4-4-4-4-4-4-4-4-4-4-7-7-7-6-6-6-7-7-7-9-9|
A|-7-7-7-7-7-7-7-7-7-7-7-7-7-7-4-4-4-4-4-4-4-4-4-4-4-4-4-4-2-2-2-2-2-2-2-2-2-2-2-2-2-2-7-7-7-6-6-6-7-7-7-9-9|
E|-------------------------------------------------------------------------------------5-5-5-4-4-4-5-5-5-7-7|

e|----------------------------------------------------------------------------------------------------------|
B|----------------------------------------------------------------------------------------------------------|
G|-9-9-9-9-9-9-9-9-9-9-9-9-9-9-6-6-6-6-6-6-6-6-6-6-6-6-6-6-4-4-4-4-4-4-4-4-4-4-4-4-4-4----------------------|
D|-9-9-9-9-9-9-9-9-9-9-9-9-9-9-6-6-6-6-6-6-6-6-6-6-6-6-6-6-4-4-4-4-4-4-4-4-4-4-4-4-4-4-7-7-7-7-7-7-7-7-7-7-7|
A|-7-7-7-7-7-7-7-7-7-7-7-7-7-7-4-4-4-4-4-4-4-4-4-4-4-4-4-4-2-2-2-2-2-2-2-2-2-2-2-2-2-2-7-7-7-7-7-7-7-7-7-7-7|
E|-------------------------------------------------------------------------------------5-5-5-5-5-5-5-5-5-5-5|

[Bridge]
e|-------------------------------------------------------------------------------|
B|-------------------------------------------------------------------------------|
G|-16-16-16-16-16-16-16-16-14-14-13-14-14-16-16-16-16-16-16-16-16-14-14-13-11-11-|
D|-xx-xx-xx-xx-xx-xx-xx-xx-xx-xx-xx-xx-xx-xx-xx-xx-xx-xx-xx-xx-xx-xx-xx-xx-xx-xx-|
A|-14-14-14-14-14-14-14-14-12-12-11-12-12-14-14-14-14-14-14-14-14-12-12-11-9--9--|
E|-------------------------------------------------------------------------------|

e|-------------------------------------------------------------------------------|
B|-------------------------------------------------------------------------------|
G|-16-16-16-16-16-16-16-16-14-14-13-14-14-16-16-16-16-16-16-16-16-14-14-13-11-11-|
D|-xx-xx-xx-xx-xx-xx-xx-xx-xx-xx-xx-xx-xx-xx-xx-xx-xx-xx-xx-xx-xx-xx-xx-xx-xx-xx-|
A|-14-14-14-14-14-14-14-14-12-12-11-12-12-14-14-14-14-14-14-14-14-12-12-11-9--9--|
E|-------------------------------------------------------------------------------|

e|-----------------------------------------------------------------------------------------------------|
B|-----------------------------------------------------------------------------------------------------|
G|-9-9-9-11-11-11-13-13-13-11-11-9-9-9-9-9-11-11-11-14-14-13-13-14-14-13-9-9-9-9-9-11-11-11-14-14-14-14|
D|-x-x-x-xx-xx-xx-xx-xx-xx-xx-xx-x-x-x-x-x-xx-xx-xx-xx-xx-xx-xx-xx-xx-xx-x-x-x-x-x-xx-xx-xx-xx-xx-xx-xx|
A|-7-7-7-9--9--9--11-11-11-9--9--7-7-7-7-7-9--9--9--12-12-11-11-12-12-11-7-7-7-7-7-9--9--9--12-12-12-12|
E|-----------------------------------------------------------------------------------------------------|

e|-------------------------------|
B|-------------------------------|
G|-13-13-13-13-13-11-11-11-11-11-|
D|-xx-xx-xx-xx-xx-xx-xx-xx-xx-xx-|
A|-11-11-11-11-11-9--9--9--9--9--|
E|-------------------------------|

[Chorus]
e|----------------------------------------------------------------------------------------------------------|
B|----------------------------------------------------------------------------------------------------------|
G|-9-9-9-9-9-9-9-9-9-9-9-9-9-9-6-6-6-6-6-6-6-6-6-6-6-6-6-6-4-4-4-4-4-4-4-4-4-4-4-4-4-4----------------------|
D|-9-9-9-9-9-9-9-9-9-9-9-9-9-9-6-6-6-6-6-6-6-6-6-6-6-6-6-6-4-4-4-4-4-4-4-4-4-4-4-4-4-4-7-7-7-6-6-6-7-7-7-9-9|
A|-7-7-7-7-7-7-7-7-7-7-7-7-7-7-4-4-4-4-4-4-4-4-4-4-4-4-4-4-2-2-2-2-2-2-2-2-2-2-2-2-2-2-7-7-7-6-6-6-7-7-7-9-9|
E|-------------------------------------------------------------------------------------5-5-5-4-4-4-5-5-5-7-7|

e|----------------------------------------------------------------------------------------------------------|
B|----------------------------------------------------------------------------------------------------------|
G|-9-9-9-9-9-9-9-9-9-9-9-9-9-9-6-6-6-6-6-6-6-6-6-6-6-6-6-6-4-4-4-4-4-4-4-4-4-4-4-4-4-4----------------------|
D|-9-9-9-9-9-9-9-9-9-9-9-9-9-9-6-6-6-6-6-6-6-6-6-6-6-6-6-6-4-4-4-4-4-4-4-4-4-4-4-4-4-4-7-7-7-7-7-7-7-7-7-7-7|
A|-7-7-7-7-7-7-7-7-7-7-7-7-7-7-4-4-4-4-4-4-4-4-4-4-4-4-4-4-2-2-2-2-2-2-2-2-2-2-2-2-2-2-7-7-7-7-7-7-7-7-7-7-7|
E|-------------------------------------------------------------------------------------5-5-5-5-5-5-5-5-5-5-5|

e|----------------------------------------------------------------------------------------------------------|
B|----------------------------------------------------------------------------------------------------------|
G|-9-9-9-9-9-9-9-9-9-9-9-9-9-9-6-6-6-6-6-6-6-6-6-6-6-6-6-6-4-4-4-4-4-4-4-4-4-4-4-4-4-4----------------------|
D|-9-9-9-9-9-9-9-9-9-9-9-9-9-9-6-6-6-6-6-6-6-6-6-6-6-6-6-6-4-4-4-4-4-4-4-4-4-4-4-4-4-4-7-7-7-6-6-6-7-7-7-9-9|
A|-7-7-7-7-7-7-7-7-7-7-7-7-7-7-4-4-4-4-4-4-4-4-4-4-4-4-4-4-2-2-2-2-2-2-2-2-2-2-2-2-2-2-7-7-7-6-6-6-7-7-7-9-9|
E|-------------------------------------------------------------------------------------5-5-5-4-4-4-5-5-5-7-7|

e|----------------------------------------------------------------------------------------------------------|
B|----------------------------------------------------------------------------------------------------------|
G|-9-9-9-9-9-9-9-9-9-9-9-9-9-9-6-6-6-6-6-6-6-6-6-6-6-6-6-6-4-4-4-4-4-4-4-4-4-4-4-4-4-4----------------------|
D|-9-9-9-9-9-9-9-9-9-9-9-9-9-9-6-6-6-6-6-6-6-6-6-6-6-6-6-6-4-4-4-4-4-4-4-4-4-4-4-4-4-4-7-7-7-7-7-7-7-7-7-7-7|
A|-7-7-7-7-7-7-7-7-7-7-7-7-7-7-4-4-4-4-4-4-4-4-4-4-4-4-4-4-2-2-2-2-2-2-2-2-2-2-2-2-2-2-7-7-7-7-7-7-7-7-7-7-7|
E|-------------------------------------------------------------------------------------5-5-5-5-5-5-5-5-5-5-5|

[Outro]
e|-------------------------------------------------------------------------------------|
B|-------------------------------------------------------------------------------------|
G|-9-9-9-9-9-9-9-9-9-9-9-9-9-9-6-6-6-6-6-6-6-6-6-6-6-6-6-6-4-4-4-4-4-4-4-4-4-4-4-4-4-4-|
D|-9-9-9-9-9-9-9-9-9-9-9-9-9-9-6-6-6-6-6-6-6-6-6-6-6-6-6-6-4-4-4-4-4-4-4-4-4-4-4-4-4-4-|
A|-7-7-7-7-7-7-7-7-7-7-7-7-7-7-4-4-4-4-4-4-4-4-4-4-4-4-4-4-2-2-2-2-2-2-2-2-2-2-2-2-2-2-|
E|-------------------------------------------------------------------------------------|

e|-----------------------------|
B|-----------------------------|
G|-----------------------------|
D|-7-7-7-7-7-7-7-7-7-7-7-7-7-7-|
A|-7-7-7-7-7-7-7-7-7-7-7-7-7-7-|
E|-5-5-5-5-5-5-5-5-5-5-5-5-5-5-|

e|----------------------------------------------------------------------------------------------------------|
B|----------------------------------------------------------------------------------------------------------|
G|-9-9-9-9-9-9-9-9-9-9-9-9-9-9-6-6-6-6-6-6-6-6-6-6-6-6-6-6-4-4-4-4-4-4-4-4-4-4-4-4-4-4----------------------|
D|-9-9-9-9-9-9-9-9-9-9-9-9-9-9-6-6-6-6-6-6-6-6-6-6-6-6-6-6-4-4-4-4-4-4-4-4-4-4-4-4-4-4--7--7--7--7--7---2~~-|
A|-7-7-7-7-7-7-7-7-7-7-7-7-7-7-4-4-4-4-4-4-4-4-4-4-4-4-4-4-2-2-2-2-2-2-2-2-2-2-2-2-2-2--7--7--7--7--7---2~~-|
E|--------------------------------------------------------------------------------------5--5--5--5--5---0~~-|


************************************

| x  Dead note
| ~  Vibrato

************************************

            
            
Suggest correction
Creating personal tab
Creating personal tab
You can edit any tab online and save it as your Personal.

You can edit, replace or remove any tab part or add personal notes – all changes will be seen only by you.

Personal tabs can be accessed anytime from any device, even offline.
Learn more »
Give kudos to tab author, rate the tab!
1 2 3 4 5
comments
print report bad tab
guest
You may want to rate the tab now too:
select rating
Wanna post a correction for this tab? Suggest correction