Oops, an error
Loading. Please wait.

Dance Yrself Clean bass

805 views 27 this week
no commentswrite comment
1 2 3 4 5
2 more votes to show rating
add to favorites
×
Save as Personal and add changes to this tab that will be seen only by you. Learn more ›
×
You can save this tab as Personal to edit and correct it or add notes. All changes will be seen only by you. Learn more »
launch autoscroll
font size
0
reset
guitar tuner
edit
Autoscroll
slow
fast
+/-
esc
set tempo
stop
Author
Difficulty
Dance Yrself Clean

[Intro]
G|---------------------------------------------------------------------------|
D|---------------------------------------------------------------------------|
A|-----7---------------------------------------------------------------------|
E|-------------------9-------------------------------------------------------|


G|---------------------------------------------------------------------------|
D|---------------------------------------------------------------------------|
A|-----7-7-7-7--------7--9---------------------------------------------------|
E|-----------------------------9-----9--9--7---------------------------------|


G|---------------------------------------------------------------------------|
D|--------------------------------------9------------------------------------| x2
A|-----7-7-7-7--------7--9---------------------------------------------------|
E|-----------------------------9-----9-----7---------------------------------|

[Alternate between these slight variations]
G|---------------------------------------------------------------------------|
D|------------------------------------------9--------------------------------|
A|---------7-7-7-7-----7--7--9-----------------------------------------------|
E|---------------------------------9-----9-----7-----------------------------|

G|---------------------------------------------------------------------------|
D|--------------------------------------9------------------------------------|
A|-----7-7-7-7--------7--9---------------------------------------------------|
E|-----------------------------9-----------7---------------------------------|

G|---------------------------------------------------------------------------|
D|--------------------------------------9------------------------------------|
A|-----7-7---7--------7--9---------------------------------------------------|
E|-----------------------------9------9---7----------------------------------|

[Transition to High Part]
G|---------------------------------------------------------------------------|
D|--------------------------------------9-9-9-9------------------------------|
A|-----7-7-7-7--------7--7--9------------------------------------------------|
E|-------------------------------9-------------------------------------------|

[High Part]
G|---------------------------------------------------------------------------|
D|----------11----9------------11---9------------11-9------------11-9--------|
A|-11-----9----11-------9---11----------9---11--------------9-11-------------|
E|---------------------------------------------------------------------------|

G|------------------------------------------------------------9--------------|
D|---------------11---9------------11------9---------------------------11-9--|
A|--9-----11------------------11-9----11-------11-9---7-----------11-9-------|
E|--------------------------------------------------------9------------------|

G|-----------------------------------9-------------------------------9-------|
D|----------------11-------9----11-------11----9-----11-----9------------11--|
A|-----11-----9--------------11----9--------11------------------9-11---------|
E|---------------------------------------------------------------------------|

G|------9--------9-----------------------------------------------------------|
D|--------11-9-----------9---------------------------------------------------|
A|--7------------------------------------------------------------------------|
E|---------------------------------------------------------------------------|

[Verse]
(play variations)

[High Part 2]
G|---------------9-----------------------------------------------------------|
D|--------11-9------------------11-9-----------------------------------------|
A|-----11--------------9---11--------7-9-----11-----9-----9-7-----11---------|
E|---------------------------------------9--------------------9-7------------|

G|---------------------------9-----------------------------------------------|
D|-----11-9---9----------------11--------------------------------------------|
A|---9----------------11---9--------9---11-----7-9-------9---7---7-11--------|
E|-------------------------------------------9-------9-----9---7-------------|

G|-----------------------------9---------------9--------------------------------9--------|
D|-------11---9------------9--------------9-11------------------------9-11---11---9------|
A|--9-11------------9---11---7-----9---11------------11---7-9-7-----9------9-------------|
E|--------------------------------------------------------------9-7----------------------|

G|------------9-----------9--------------------------------------9-------9--------9------|
D|----------------------------------11---------11---------11-----------------11-9--------|
A|---11---9-7----------------------------------------------------------------------------|
E|------9--------------------------------------------------------------------------------|

G|---------9-------9-----9------9-----9---------------9-----9---------9---9--------------|
D|-------------9-------------11-------------9-------9-----------11-11---------11-9-9-9-9-|
A|---------------------------------------------------------------------------------------|
E|---------------------------------------------------------------------------------------|

[Verse]
(play variations)
G|---------------------------------------------------------------------------|
D|---------------------------------------------------------------------------|
A|-----7-7---7--------7--7--9------------------------------------------------|
E|-----------------------------------9------7--------------------------------|

G|---------------------------------------------------------------------------|
D|----------------------------------------9----------------------------------|
A|-----7-7---7-------7--7--9-------------------------------------------------|
E|-------------------------------9-----9-----7-------------------------------|

G|---------------------------------------------------------------------------|
D|---------------------------------------------------------------------------|
A|-----7---------------------------------------------------------------------|
E|-------------------9-------------------------------------------------------|

[High Part 3]
G|------------9-----------------------9--------------------9-----------------|
D|-------11-9--------------------11-----11------------11-9-------------------|
A|--9-11----------7---------9-11-----------------9-11----------7-------------|
E|---------------------------------------------------------------------------|

G|------------9-------------------9---------------------9--------------------|
D|-------11------------------11-9------------------11-----9------------------|
A|--9-11--------7-------9-11----------7-------9-11---------------------------|
E|---------------------------------------------------------------------------|

G|------------9---------------------9----------------------------------------|
D|-------11-9------------------11--------------------------------------------|
A|--9-11----------7-------9-11--------7--------------------7-7-7-7-----------|
E|---------------------------------------------------------------------------|

[Verse]
(play variations)
G|---------------------------------------------------------------------------|
D|---------------------------------------------------------------------------|
A|-----7-7---7--------7--7--9------------------------------------------------|
E|-----------------------------------9------7--------------------------------|

G|---------------------------------------------------------------------------|
D|----------------------------------------9----------------------------------|
A|-----7-7---7-------7--7--9-------------------------------------------------|
E|-------------------------------9-----9-----7-------------------------------|

[Transition]
G|---------------------------------------------------------------------------|
D|--------------------------------------9-9-9-9------------------------------|
A|-----7-7-7-7--------7--9---------------------------------------------------|
E|-----------------------------9-----9---------------------------------------|

[High Part 4]
G|----------------9----------------------------------------------------------|
D|---------11-9------------------11-9----------------------------------------|
A|--9---11--------------9---11--------7-9-----11-----9---------7-------------|
E|----------------------------------------9----------------9-7---------------|

G|-------------------------------9-------------------------------------------|
D|---------11-9---9----------------11----------------------------------------|
A|--11---9----------------11---9--------11---9---7-9---------------7---11----|
E|---------------------------------------------------9---7---9-7-9---7-------|

G|------------9---------------------------------9----------------------------|
D|-------11-9--------------11--------------11-9------------------------------|
A|--9-11------------11---9----7-----9---11----------11---9-7-----7-7---------|
E|-----------------------------------------------------------9-7-------------|

G|----------9-----------------9-----------9----------------------------------|
D|-------11---9------------11-------------------9---------9------------------|
A|--11-9------------11---9---------------------------------------------------|
E|---------------------------------------------------------------------------|

[Verse]
(play variations)
G|---------------------------------------------------------------------------|
D|---------------------------------------------------------------------------|
A|-----7-7---7--------7--7--9------------------------------------------------|
E|-----------------------------------9------7--------------------------------|

G|---------------------------------------------------------------------------|
D|----------------------------------------9----------------------------------|
A|-----7-7-7-7-------7--7--9-------------------------------------------------|
E|-------------------------------9-----9-----7-------------------------------|

[Outro]
G|---------------------------------------------------------------------------|
D|---------------------------------------------------------------------------|
A|-----7---------------------------------------------------------------------|
E|-------------------9-------------------------------------------------------|

            
            
Suggest correction
Creating personal tab
Creating personal tab
You can edit any tab online and save it as your Personal.

You can edit, replace or remove any tab part or add personal notes – all changes will be seen only by you.

Personal tabs can be accessed anytime from any device, even offline.
Learn more »
Give kudos to tab author, rate the tab!
1 2 3 4 5
comments
print report bad tab
guest
You may want to rate the tab now too:
select rating
Wanna post a correction for this tab? Suggest correction