Oops, an error
Loading. Please wait.

Cant Fight The Moonlight bass

version 1
version 1

Whole song

603 views 1 this week
no commentswrite comment
1 2 3 4 5
2 more votes to show rating
add to favorites
×
Save as Personal and add changes to this tab that will be seen only by you. Learn more ›
×
You can save this tab as Personal to edit and correct it or add notes. All changes will be seen only by you. Learn more »
launch autoscroll
font size
0
reset
guitar tuner
edit
Autoscroll
slow
fast
+/-
esc
set tempo
stop
-------------------------------------------------------------------------------
                             CAN'T FIGHT THE MOONLIGHT - Leann Rimes
-------------------------------------------------------------------------------
Tabbed by: WibbleWobble
E-mail: organisedchaos@talktalk.net

Tuning: standard EADG

OK not sure if it's 100% the bass line on the actual song,  but you can gig it for sure


INTRO
G|---------------------------------------------------------------------------|
D|---------------------------------------------------------------------------|
A|---------------------------------------------------------------------------|
E|-4-3--1-1----3-3-----------------------------------------------------------|

1st verse
G|---------------------------------------------------------------------------|
D|---------2--2-2----------------------------2--2-2--------------------------|
A|-2--2-2----------0--0-0------------2--2-2----------0--0-0------------------|
E|--------------------------3--2-3---------------------------3-2-3-----------|

"underneath the starlight, starlight"
G|---------------------------------------------------------------------------|
D|-------------------------------------5-------------------------------------|
A|7--7-7--5--5-5--6-7--7-7--5--5-5-6-7------3--3-3----------1--1-1-----------|
E|--------------------------------------------------1--1-1----------4-3-1----|

G|---------------------------------------------------------------------------|
D|----------------------------------5----------------------------------------|
A|-3--3-3---------1--1-1-----------------------------------------------------|
E|---------1--1-1---------4-3-1----------------------------------------------|

Repeat 1st verse
Repeat as "underneath the startlight,  starlight" but there's small bit tacked on the end:
G|---------------------------------------------------------------------------|
D|-3--3-3---5---5-5---3--3-3---5---------------------------------------------|
A|---------------------------------------------------------------------------|
E|---------------------------------------------------------------------------|

BREAK @ 02:16 in just before the key change 
G|---------------------------------------------------------------------------|
D|---------2--2-2------------------------------------------------------------|
A|-2--2-2----------0--0-0----------------------------------------------------|
E|-------------------------3--2-3--------------------------------------------|

Step up:
G|----------------------------------------0-1--------------------------------|
D|-3--3-3---1--1-1-2-3--3-3--1--1-1-2-3-3------------------------------------|
A|----------------------------------------------4--4-4----------2--2-2-------|
E|------------------------------------------------------2--2-2----------5-4-5|

G|---------------------------------------------------------------------------|
D|---------------------------------6-----------------------------------------|
A|-4--4-4----------2--2-2----------------------------------------------------|
E|---------2--2-2----------5-4-2---------------------------------------------|

Playout to:
G|---------------------------------------------------------------------------|
D|---------------------------------------------------------------------------|
A|-4--4-4-----------2---2-2---------4--4-4----------2--2-2-------------------|
E|---------2--2-2------------5-4-5----------2--2-2----------5-4-2------------|


| /  slide up
| \  slide down
| h  hammer-on
| p  pull-off
| ~  vibrato
| +  harmonic
| x  Mute note
===============================================================================

            
            
Suggest correction
Creating personal tab
Creating personal tab
You can edit any tab online and save it as your Personal.

You can edit, replace or remove any tab part or add personal notes – all changes will be seen only by you.

Personal tabs can be accessed anytime from any device, even offline.
Learn more »
Give kudos to tab author, rate the tab!
1 2 3 4 5
comments
print report bad tab
guest
You may want to rate the tab now too:
select rating
Wanna post a correction for this tab? Suggest correction