Oops, an error
Loading. Please wait.

Dancing Days chords

version 1
version 1

Whole song

Interactive

18,382 views 102 this week
2 commentsread comments
1 2 3 4 5
x 28
add to favorites
×
Save as Personal and add changes to this tab that will be seen only by you. Learn more ›
×
You can save this tab as Personal to edit and correct it or add notes. All changes will be seen only by you. Learn more »
launch autoscroll
font size
0
reset
transpose
0
reset
display chords
guitar tuner
backing track
0:00
0:00
edit
Autoscroll
slow
fast
+/-
esc
set tempo
stop
Author
Difficulty
Strumming
There is no strumming pattern for this song yet. and get +5 IQ
Credit to "doompers7491" for intro riff. Times listed are elapsed time from the 
start. Tabbed by Marty Lurvey.

All barre chords: C - 8th fret, C# - 9th fret, Bb - 6th fret, A - 5th fret

[Intro] x2  < main riff line > 
e|-------------------------------------------------------------------------|
B|-2-3-2h3p2p0--------2-3-2h3p2p0--------2-3-2h3s7p5--------2-3-2h3p2p0----|
G|-------------------------------------------------------------------------|
D|-------------------------------------------------------------------------|
A|-------------------------------------------------------------------------|
E|-------------------------------------------------------------------------|

[Verse 1]
C                C#
Dancing days are here again,
C
Summer evenings grow.
                   C#
I got my flower, I got my power,
C
I got a woman who knows.   0:33

[Chorus]
I said it's alright,
Bb
You know it's alright,
A
I guess it's all in my heart.
C
You'll be my only,
Bb
My one and only,
A
Is that the way it should start?  0:50

[Verse 2]
C              C#
Crazy ways are evident,
       C
In the way you wearin' your clothes.
                 C#
Sippin' booze is precedent,
       C
As the evening starts to glow.  1:06

[Chorus]
You know it's alright,
Bb
I said it's alright,
A
You know it's all in my heart.
C 
You'll be my only,
Bb
My one and only,
A
Is that the way it should start... deal?  1:21

[Intro] x2  < main riff line >  1:39
e|-------------------------------------------------------------------------|
B|-2-3-2h3p2p0--------2-3-2h3p2p0--------2-3-2h3s7p5--------2-3-2h3p2p0----|
G|-------------------------------------------------------------------------|
D|-------------------------------------------------------------------------|
A|-------------------------------------------------------------------------|
E|-------------------------------------------------------------------------|

[Verse 3]
C                      C#
You told your mama I'd get you home,
        C 
But you didn't say that I had no car.
                     C#
I saw a lion, he was standin' alone,
       C 
With a tadpole in a jar.   1:55

[Chorus]
You know it's alright,
Bb
I said it's alright,
A
I guess it's all in my heart, heart, heart.
C  
You'll be my only,
Bb
My one and only,
A
Is that the way it should start?   2:10

[Verse 1] repeated
C                   C#
So dancing days are here again,
       C 
As the summer evenings grow.
                       C#
You are my flower, you are my power,
    C 
You are my woman who knows.  2:27

[Chorus]
I said it's alright,
Bb
You know it's alright,
A
You know it's all in my heart.
C  
You'll be my only,
Bb
Yes, my one and only, yes,
A
Is that the way it should start, I know it is that.  2:44

[Intro] x2  < main riff line > 3:00
e|-------------------------------------------------------------------------|
B|-2-3-2h3p2p0--------2-3-2h3p2p0--------2-3-2h3s7p5--------2-3-2h3p2p0----|
G|-------------------------------------------------------------------------|
D|-------------------------------------------------------------------------|
A|-------------------------------------------------------------------------|
E|-------------------------------------------------------------------------|

[Instrumental slide solo]   3:12

[Intro] x2  < main riff line > 3:28
e|-------------------------------------------------------------------------|
B|-2-3-2h3p2p0--------2-3-2h3p2p0--------2-3-2h3s7p5--------2-3-2h3p2p0----|
G|-------------------------------------------------------------------------|
D|-------------------------------------------------------------------------|
A|-------------------------------------------------------------------------|
E|-------------------------------------------------------------------------|

[Outro] < ½ of intro, then finish on D note >   3:43

            
            
Suggest correction
Creating personal tab
Creating personal tab
You can edit any tab online and save it as your Personal.

You can edit, replace or remove any tab part or add personal notes – all changes will be seen only by you.

Personal tabs can be accessed anytime from any device, even offline.
Learn more »
comments
print report bad tab
2 comments total.
0 reply
fintroller 30 Apr 13, 2015 07:52 PM

Song is much easier and sounds better in open G tuning

0 reply
russiltamsen 10 Jun 13, 2017 03:00 PM

fintroller is dead on! Tuning: D G D G B D

guest
You may want to rate the tab now too:
select rating
Wanna post a correction for this tab? Suggest correction