Oops, an error
Loading. Please wait.
We have an official Heartbreaker tab made by UG professional guitarists. Check out the tab »
×
276,935 views 315 this week
15 commentsread comments
1 2 3 4 5
x 33
add to favorites
×
Save as Personal and add changes to this tab that will be seen only by you. Learn more ›
×
You can save this tab as Personal to edit and correct it or add notes. All changes will be seen only by you. Learn more »
launch autoscroll
font size
0
reset
how to read this tab
guitar tuner
backing track
0:00
0:00
edit
Autoscroll
slow
fast
+/-
esc
set tempo
stop
Led Zeppelin
"Heartbreaker"
Led Zeppelin II
Atlantic Records 1969

Tuning| EADGBE (A=445)


[Intro]

e|-----|-------------------------------------------|
B|-----|-------------------------------------------|
G|-----|-------------------------------------------|
D|-----|-------0--1-2------------------0--1-2------|
A|-----|-0--3---------------0-0-0-0-3--------------|
E|-3b5-|---------------3b5--------------------3b5--|


[Chorus]

e|------------------------------------------|
B|------------------------------------------|
G|------------------------------------------|
D|-------0--1-2-----------------0--1-2------| x2
A|-0--3--------------0-0-0-0-3--------------|
E|--------------3b5--------------------3b5--|

e|------------------------------------------|
B|------------------------------------------|
G|------------------------------------------|
D|-------2--3-4-----------------2--3-4------|
A|-2--5--------------2-2-2-2-5--------------|
E|--------------5b7--------------------5h7--|

e|------------------------------------------|
B|------------------------------------------|
G|------------------------------------------|
D|-------0--1-2-----------------0--1-2------|
A|-0--3--------------0-0-0-0-3--------------|
E|--------------3b5--------------------3b5--|


[Verse]

e|--------------------------------------------------|
B|-------7-------7-------7-------7-----7---7---7----|
G|-2-----7-6-----7-6-----7-6-----7-6---7-6-7-6-7-6--|
D|-2-----7-7-----7-7-----7-7-----7-7---7-7-7-7-7-7--|
A|-0-----5-7-----5-7-----5-7-----5-7---5-7-5-7-5-7--|
E|---------5-------5-------5-------5-----5---5---5--|


[After verse 2]

e|------------------------------------------|
B|------------------------------------------|
G|------------------------------------------|
D|-------3--4-5-----------------3--4-5------| x2
A|-3--6--------------3-3-3-3-6--------------|
E|--------------6b8--------------------6b8--|

e|--------------------------------------------|
B|--------------------------------------------|
G|--------------------------------------------|
D|-------5--6-7------------------5--6-7-------|
A|-5--8---------------5-5-5-5-8---------------|
E|--------------8b10--------------------8b10--|

e|------------------------------------------------|
B|------------------------------------------------|
G|------------------------------------------------|
D|--------7--8-9--------------------7--8-9--------|
A|-7--10----------------7-7-7-7-10----------------|
E|---------------10b12---------------------10b12--|

e|---------------------------------|
B|---------------------------------|
G|-----7---7-7-7---7-7-7---7-9-----|
D|---9---9-------9-------9---------| x2
A|---------------------------------|
E|---------------------------------|

e|-----------------|
B|-9-9-9-9-9-9-9-9-|
G|-9-9-9-9-9-9-9-9-|
D|-9-9-9-9-9-9-9-9-| x4
A|-7-7-7-7-7-7-7-7-|
E|-----------------|


[Bridge]

v These lines aren't measures

e|--------------------|
B|--------------------|
G|--------------------|
D|-7---10p7-----------| x2
A|----------10p9p7----|
E|-----------------11-|

e|-----------------------------------------------------|
B|-----------------------------------------------------|
G|-----------------------------------------------------|
D|-7---10p7----10p7----10p7----10p7----10p7----10p7----|
A|----------10------10------10------10------10------10-|
E|-----------------------------------------------------|

e|-----------|
B|-----------|
G|-7b10------|
D|------10-7-| x6
A|-----------|
E|-----------|

e|----------------------|
B|----------------------|
G|-7b9b7b9b7b9b7--------|
D|---------------10-----|
A|----------------------|
E|----------------------|

e|-------------------------------|
B|-------------------------------|
G|------7-7b9--------7-7h9p7-----|
D|-7-10---------7-10---------7---|
A|-------------------------------|
E|-------------------------------|

e|-----------------------|
B|-----------------------|
G|------7b9b7b9b7b9b7----|
D|-7-10------------------|
A|-----------------------|
E|-----------------------|

e|----------    --------|
B|----------    --------|
G|-9-7------    --------|
D|-----10-7- x4 7-10-12-|
A|----------    --------|
E|----------    --------|

v It starts getting VERY fast here

e|-------------------|-------------------|
B|-13-12----12-------|-13----12----------|
G|-------14----14-12-|----14-------12-14-|
D|-------------------|----------14-------|
A|-------------------|-------------------|
E|-------------------|-------------------|
^ repeat each section a few times

e|-----------------------------------------------|
B|-13-12-----------------------------------------|
G|-------14-12-----------------------------------|
D|-------------14-12-----------------------------|
A|-------------------15-12-10--------------------|
E|----------------------------12-10--12--8--10---|
{Random picking----------------------------------|

e|----------------------------------------------5-8------|
B|------------------------------------------5-8-----5-8--|
G|------------------------------5-7-----5-7--------------|
D|------------------5-7-----5-7-----5-7------------------|
A|--------------5-7-----5-7------------------------------|
E|-4--5--6--5-8------------------------------------------|
{           Random picking-------------------------------|

e|----------------5--5-------|
B|-------5--5--5--------8----|
G|---5-7---------------------|
D|-7-------------------------|
A|---------------------------|
E|---------------------------|

e|------------------------------|
B|---9----7----5----4----3--\\--|
G|------------------------------|
D|-9----7----6----5----4----\\--|
A|------------------------------|
E|------------------------------|

e|-------------------------|
B|-2---3---5---5/7---5--3--|
G|-x---x---x---x-----x--x--|
D|-2---4---5---5/7---5--4--|
A|-0---0---0---0-----0--0--|
E|-------------------------|


[Interlude]

Guitar 1:
Play each measure multiple times

e|-------------------------|
B|-2---3---5---5/7---5--3--|
G|-x---x---x---x-----x--x--|
D|-2---4---5---5/7---5--4--|
A|-0---0---0---0-----0--0--|
E|-------------------------|

e|---------------------------|
B|---------------------------|
G|---------------------------|
D|----------------5--5-4--2--|
A|-0--0-3--3-4--4------------|
E|---------------------------|

e|-------------------------|
B|-------------------------|
G|-6---4---6---9---6---4---|
D|-7---5---7---10--7---5---|
A|-7---5---7---10--7---5---|
E|-5---3---5---8---5---3---|

e|-----------------|
B|-----------------|
G|-2-2-2-2-2-2-2-2-|
D|-2-2-2-2-2-2-2-2-|
A|-0-0-0-0-0-0-0-0-|
E|-----------------|

Guitar 2:
One note every measure

e|-------|
B|-------|
G|-2-----|
D|-2-----|
A|-0-----|
E|-------|

Guitar 3:

e|-3-----2-----3-----2-----|
B|-3-----3-----3-----3-----|
G|-4-----2-----4-----2-----|
D|-5-----0-----5-----0-----|
A|-------------------------|
E|-------------------------|

e|----------------------------------|
B|----------------------8-10-8b10---|
G|------------------7-9-------------|
D|-------------7-10-----------------|
A|--------7-10----------------------|
E|-5-8-10---------------------------|

e|------8b10-8-8b10-8-8b10-10-10b12b10-|
B|-8-10--------------------------------|
G|-------------------------------------|
D|-------------------------------------|
A|-------------------------------------|
E|-------------------------------------|

e|----9-10----10-----------------------------|
B|-12------11----10--12-12-12-12-12-10-------|
G|--------------------------------------12---|
D|-------------------------------------------|
A|-------------------------------------------|
E|-------------------------------------------|

e|----10-12-12b14-12-12b14-12-12b14--12-10----------|
B|-12--------------------------------------13-15----|
G|-----------------------------------------------14-|
D|--------------------------------------------------|
A|--------------------------------------------------|
E|--------------------------------------------------|

e|-------------------|
B|-------------------|
G|-14h17p14----14-17-|
D|----------17-------| x4
A|-------------------|
E|-------------------|

e|-------------------|
B|-------------------|
G|-17-16-14-16----14-|
D|-------------17----| x4
A|-------------------|
E|-------------------|

e|-------------------------------|
B|-15b17-15b17b15-13----13----13-|
G|-------------------14----14----|
D|-------------------------------|
A|-------------------------------|
E|-------------------------------|

e|------------------------------|
B|-15b17-15b17-13-------13------|
G|----------------14-12----14---|
D|------------------------------|
A|------------------------------|
E|------------------------------|

e|-----5--------------------------------------------|
B|-------8-5----------------------------------------|
G|-7b9-------7-5-------5----------------------------|
D|---------------7-5-7---7-5-------5-----------5-7--|
A|---------------------------7-5-7---7-5---5-7------|
E|---------------------------------------8----------|
{      Random picking-------------------------------|

e|----------------------------------------------|
B|-------8-10-8b10-8b10-13-10-13-10-13-10-13-10-|
G|---5-7----------------------------------------|
D|-7--------------------------------------------|
A|----------------------------------------------|
E|----------------------------------------------|

e|---------------------------------------|
B|-------8-8-8-8-8-8-8-8-8-8-8-8-8-8-8-8-|
G|-------6-6-6-6-6-6-6-6-6-6-6-6-6-6-6-6-|
D|-----0-7-7-7-7-7-7-7-7-7-7-7-7-7-7-7-7-|
A|---0---7-7-7-7-7-7-7-7-7-7-7-7-7-7-7-7-|
E|-0-------------------------------------|

e|-14-12----14-12----14-12----14-12----14-12-|
B|-------13-------13-------13-------13-------|
G|-------------------------------------------|
D|-------------------------------------------|
A|-------------------------------------------|
E|-------------------------------------------|

e|----13----13----13----13-13\\-----|
B|-15----15----15----15----15\\-----|
G|----------------------------------|
D|----------------------------------|
A|----------------------------------|
E|----------------------------------|


[Ending]

e|------------------------------------------|
B|------------------------------------------|
G|------------------------------------------|
D|-------0--1-2-----------------0--1-2------|
A|-0--3--------------0-0-0-0-3--------------|
E|--------------3b5--------------------3b5--|

e|------------------|
B|------------------|
G|------------------|
D|-------0--1-2-----|
A|-0--3-------------|
E|--------------3---|


************************************

| x  Dead note
| h  Hammer-on
| p  Pull-off
| b  Bend
| \  Slide down

************************************

            
            
Suggest correction
Creating personal tab
Creating personal tab
You can edit any tab online and save it as your Personal.

You can edit, replace or remove any tab part or add personal notes – all changes will be seen only by you.

Personal tabs can be accessed anytime from any device, even offline.
Learn more »
comments
print report bad tab
15 comments total. Showing first comments.
0 reply
zeusplayer44 30 May 14, 2004 08:00 PM

yeah speaking of the solo its not "random picking", its pure freakin brilliance......but you knew that, right?

0 reply
astepabove 10 Oct 19, 2005 06:08 AM

damn straight its brilliance! It's Jimmy Page at his best!

0 reply
mysteryguitar 10 Jan 09, 2006 01:07 AM

excuse me but when speaking aout jimmy page, reffer to him as a king, no, a god. thank you...yes he is the best

guest
You may want to rate the tab now too:
select rating
Wanna post a correction for this tab? Suggest correction