Oops, an error
Loading. Please wait.

Hey Hey What Can I Do bass

version 2
version 2

Whole song

Interactive

22,852 views 33 this week
no commentswrite comment
1 2 3 4 5
x 11
add to favorites
×
Save as Personal and add changes to this tab that will be seen only by you. Learn more ›
×
You can save this tab as Personal to edit and correct it or add notes. All changes will be seen only by you. Learn more »
launch autoscroll
font size
0
reset
guitar tuner
backing track
0:00
0:00
edit
Autoscroll
slow
fast
+/-
esc
set tempo
stop
Led Zeppelin
Hey Hey What Can I Do ?
bass tab

  0.00         intro             t:85
|----------------|----------------|
|----------------|----------------|
|----------------|----------------|
|----------------|----------------|
                                                  4:4
|----------------|----------------|----------------|
|---2------------|---2-------4=4=-|----------------|
|234-------------|234------------4|4---------------|
|----4-444--44-=-|----4-444-------|----------------|

  0.16         verse 1
|----------------|----------------|----------------|----------------|
|6-------4--4----|-4--------------|6--=---444=4----|-4---4----------|
|----6--6----4------4-4--6764-----|----6-------4------444-4\-^---^-^|
|----------------|------------764-|----------------|--------40-02020|

|----------------|----------------|----------------|------------|
|--------4--4----|-4--------------|6-\-5--.3--0----|------------| 6:8
|----6--6----4------4-4--6764-----|------------4----------------|
|4---------------|------------764-|----------------|------------|

  0.41         chorus 1
|----------------|--6-------------|----------------|----------------|
|----------------|6--6------4=----|----------------|-6-6----66=66666|
|---------0404--4|-4--4----6--654\|---------0404---|--4-4--4--------|
|4---4--2--------|----------------|4---4--2--------|----------------|

|----------------|--6-6--6-6------|----------------|--6-------------|
|----------------|-6-6------34664-|----------------|-6-6------45664-|
|---------0404---|---------------6|---------0404---|----4--4-6-----6|
|4---4--2--------|----------------|4---4--2--------|----------------|

  1.06         verse 2
|----------------|----------------|----------------|----------------|
|6--6----4--4----|-4--------------|6--.----4-44----|-4----------30--|
|----6--6----4------4-4--6764-----|----6--6----4------444----234--2-|
|----------------|------------764-|----------------|------654-------|

|----------------|----------------|----------------|------------|
|--------4--4----|-4--------------|6-\-5--.3--0----|------------| 6:8
|---.6--6----4------4-4--6764-----|------------4----------------|
|4---------------|------------7640|----------------|------------|

  1.30         chorus 2                                   -3-
|----------------|--6-------------|----------------|----------------|
|----------------|-6-6------40664-|----------------|6------^44=06080|
|---------0404--------4--4-6-----6|---------0404---|-44-4-456-------|
|4---4--2--------|----------------|4---4--2--------|----------------|

|----------------|--6-------------|----------------|-6--6-----------|
|----------------|-6-6---^^040664-|----------------|--6--6----------|
|---------0404--------4--56------6|---------0404-------4--4--64-----|
|4---4--2--------|----------------|4---4--2--------|-----------65420|

  1.55         verse 3
|----------------|----------------|----------346--------------------|
|--------4--4----|-4----^---------|--------46------|-6-6--4-----30--|
|----6--6----4------4.4--6764-----|----6--6--------|--4-4--60234--2-|
|4---------------|------------7640|4--4------------|----------------|

|---------6=-6-----6--------------|----------------|------------|
|-------.4--4----|--6-------------|6-\-5--.3--.----|------------| 6:8
|---.6-----------|---64--6764-----|------------4----------------|
|4---------------|------------764-|----------------|------------|

  2.19         chorus 3
|----------------|--6-------------|----------------|--6-------------|
|----------------|-6-6-------4664-|----------------|-6-6--------6-6-|
|---------0404--------4--4456----6|---------0404--------4--.444--6-6|
|4---4--2--------|----------------|4---4--2--------|----------------|

|----------------|--6-------------|----------------|----------------|
|----------------|-6-6-----^^^----|---------------.|456.------------|
|---------0404--------4--.6540-^^^|---------0404---|----4--.456.----|
|4---4--2--------|------------6540|4---4--2--------|------------4-2-|

  2.44         outro                                    -3- -3-
|----------------|------6---------|----------------|--6-------------|
|----------------|-------8-6------|----------------|-4----4---4-664-|
|---------0404---------------8-6--|---------0404---|----456-456----6|
|4---4--2--------|--------------76|4---4--2--------|----------------|

|----------------|-/--------------|----------------|--6-------^X8---|
|-------------^-^|23---4-3/4-^----|----------------|-6-6-----8X--X8-|
|---------0404020|--4-------6464--|---------0404---|---------------X|
|4---4--2--------|--------------6\|4---4--2--------|----------------|

  3.08
|----------------|----^-/-^---^---|----------------|----------------|
|----------------|---033=455.5664-|----------------|-----------02345|
|---------0404---|---------------6|---------0404---|-----020234-----|
|4---4--2--------|----------------|4---4--2--------|-0234--------/--|

|--------------6----3-----^^------|----------------|606-----4-------|
|6---------------|-----4=320-^^^--|-------------060|----34-6-65-----|
|---------0404---|----------4320-^|---------0404---|------------6542|
|----4--2--------|--------------20|4---4--2--------|---------------\|

  3.32                        -3-3-
|----------------|-----------^----|----------------|-----6-45666655-|
|----------------|--------6640-^^-|---------------.|.3456----^---^-6|
|---------0404--------4-------640^^---------0404---|----------------|
|4---4--2--------|--------------6404---4--2--------|----------------|

|----------------|----------------
|6------4--------|----04-:5-:6---
|---------04-----|-04-----------
|----4-------4---|-------------


standard tuning (EADG)

| /  slide up
| \  slide down

| .   incidental note (usually open string)
| ^   pre-struck note (hammer-on, pull-off)
| =   rest

| X   10
| E   11
| T   12
| H   13
| F   14

other punctuation
= percussion cues

horizonto time standardized
display in fixed-width font
one space ("-") = 1/16 note
n fits easily on one screen
print out in landscape mode

tabbed by
spaceyhippie
dudeman.net/jam

            
            
Suggest correction
Creating personal tab
Creating personal tab
You can edit any tab online and save it as your Personal.

You can edit, replace or remove any tab part or add personal notes – all changes will be seen only by you.

Personal tabs can be accessed anytime from any device, even offline.
Learn more »
comments
print report bad tab
guest
You may want to rate the tab now too:
select rating
Wanna post a correction for this tab? Suggest correction