Oops, an error
Loading. Please wait.

In The Light tab

version 4
version 4

Whole song

Interactive

4,322 views 24 this week
3 commentsread comments
1 2 3 4 5
1 last vote to show rating
add to favorites
×
Save as Personal and add changes to this tab that will be seen only by you. Learn more ›
×
You can save this tab as Personal to edit and correct it or add notes. All changes will be seen only by you. Learn more »
launch autoscroll
font size
0
reset
how to read this tab
guitar tuner
backing track
0:00
0:00
edit
Autoscroll
slow
fast
+/-
esc
set tempo
stop
Author
-------------------------------------------------------------------------------
                             In The Light – Led Zeppelin
-------------------------------------------------------------------------------
Tabbed by: Richard Deskin III
Email: someguy087@hotmail.com

e|--------------------------------------------------------------------------|
B|--------------------------------------------------------------------------|
G|-------------------------------9-------------------------------9----------|
D|----7--6----5------------------7----7--6----5------------------7----------|x2
A|---------------7----6--5-------7---------------7----6--5-------7----------|
E|----------------------------8--5----------------------------8--5----------|

e|--------------------------------------------------------------------------|
B|--------------------------------------------------------------------------|
G|--------------------------7---------------------------------7-------------|
D|----------7---5--7-----------7--5—-7---------7---5--7-----------7--5--7---|x3
A|----0--0------------9--8--------------0--0------------9--8----------------|
E|--------------------------------------------------------------------------|

e|---------------------------------------------------------------------------|
B|---------------------------------------------------------------------------|
G|-----------------------7---------------------------------7-----------------|
D|------7---5--7-----------7--5--7--------7---5--7-----------7--5--7--7-6--5-|
A|0--0-------------9--8--------------0--0------------9--8-------------------7|
E|---------------------------------------------------------------------------|

e---------------------------------------------------------------------------|
B|--------------------------------------------------------------------------|
G|--------------------------7-----------------------------------------------|x7
D|----------7---5--7-----------7--5--7--------------------------------------|
A|----0--0------------9--8--------------------------------------------------|
E|--------------------------------------------------------------------------|

e|--------------------------------------------------------------------------|
B|--------------------------------------------------------------------------|
G|-------------------------------9-------------------------------9----------|
D|----7--6----5------------------7----7--6----5------------------7----------|x2
A|---------------7----6--5-------7---------------7----6--5-------7----------|
E|----------------------------8--5----------------------------8--5----------|

e|--------------------------------------------------------------------------|
B|-------------------------------------5----7--9-10-------------------------|
G|-------------------------------6--7---------------------------------------|x4
D|--------------------4--6--7-----------------------------------------------|
A|----0----4--5--7----------------------------------------------------------|
E|--------------------------------------------------------------------------|


e|---------------------------------------------------------------------------|
B|---------------------------------------------------------------------------|
G|----------------------------------------7----------------------------------|
D|--7--6----5-------------7---5--7-----------7--5--7-------------------------|
A|-------------7----0--0------------9--8-------------------------------------|
E|---------------------------------------------------------------------------|

e|--------------------------------------------------------------------------|
B|--------------------------------------------------------------------------|
G|-------------------------7------------------------------------------------|
D|----------7--5--7-----------7--5--7---------------------------------------|x6
A|----0--0-----------9--8---------------------------------------------------|
E|--------------------------------------------------------------------------|

e|--------------------------------------------------------------------------|
B|--------------------------------------------------------------------------|
G|-------------------------------9-------------------------------9----------|
D|----7--6----5------------------7----7--6----5------------------7----------|x2
A|---------------7----6--5-------7---------------7----6--5-------7----------|
E|----------------------------8--5----------------------------8--5----------|

e|-------------------------------------------------------------------------|
B|-------------------------------------5----7--9-10------------------------|
G|-------------------------------6--7--------------------------------------|x14
D|--------------------4--6--7----------------------------------------------|
A|----0----4--5--7---------------------------------------------------------|
E|-------------------------------------------------------------------------|

            
            
Suggest correction
Creating personal tab
Creating personal tab
You can edit any tab online and save it as your Personal.

You can edit, replace or remove any tab part or add personal notes – all changes will be seen only by you.

Personal tabs can be accessed anytime from any device, even offline.
Learn more »
Give kudos to tab author, rate the tab!
1 2 3 4 5
comments
print report bad tab
3 comments total.
0 reply
jeigh.elzbth 10 Aug 04, 2015 06:54 PM, edited on August 5 2015, 01:27 am

This is so wrong. I should have given it zero stars. The main riff even has incorrect notes, despite the wrong positioning. Why is there so much crap on this site?

0 reply
jeigh.elzbth 10 Aug 04, 2015 06:56 PM, edited at 11:03 pm

Drone the A sting when playing the 7th fret A, on the D string, and when hammering on to it from the 5th fret.

0 reply
jeigh.elzbth 10 Aug 04, 2015 09:30 PM

Never mind, don't even play it out of that position, it's wrong. This whole tab is wrong, wrong wrong. If you want the right position, there is a cover on youtube with about 1,500 views, just one guitarist, showing the correct position and notes.

guest
You may want to rate the tab now too:
select rating
Wanna post a correction for this tab? Suggest correction